» » »

A Thousand Days Tabs (ver.2)

Artists:  A B C D E F G H I J K L M N O P Q R S T U V W X Y Z # 

A Thousand Days Tabs (ver.2)

Offspring
Rating:
0/5 (0 votes)

Tabs too difficult? Try these video lessons and learn fast.
                The Offspring
A Thousand Days
Offspring (Self Titled album)



this song it's kind fast, so there is the difficult

Intro
e---------------------------------------------------------|
B---------------------------------------------------------|
G---------------------------------------------------------|
D---------------------------------------------------------|
A--------------------------x-9-x-8-x-5~-------------------|
E----------5-5-5-5/7--7-7---------------------------------|

Verse (A)
e---------------------------------------------------------|
B---------------------------------------------------------|
G--------------x-11-x-10--7~------------------------------|
D-------7-9-9--x-11-x-10--7~------------------------------|
A-------7-9-9--x--9-x--8--5~------------------------------|
E-------5-7-7---------------------------------------------|

Verse (B)
e---------------------------------------------------------|
B-------------x-12-x-11--8~-------------------------------|
G------7-9-9--x-11-x-10--7~-------------------------------|
D------7-9-9--x--9-x--8--5~-------------------------------|
A------5-7-7----------------------------------------------|
E---------------------------------------------------------|

Chorus
e---------------------------------------------------------|
B---------------------------------------------------------|
G-----------5-5-5-------7-7-7--4-4-4-4-4-4-4--------------|
D------5-5--5-5-5--5-5--7-7-7--4-4-4-4-4-4-4--------------|
A------5-5--3-3-3--5-5--5-5-5--2-2-2-2-2-2-2--------------|
E------3-3---------3-3------------------------------------|


e---------------------------------------------------------|
B---------------------------------------------------------|
G-----------5-5-5-------7-7-7-----------------------------|
D------5-5--5-5-5--5-5--7-7-7--4~-------------------------|
A------5-5--3-3-3--5-5--5-5-5--4~-------------------------|
E------3-3---------3-3---------2~-------------------------|

Riff
e---------------------------------------------------------|
B---------------------------------------------------------|
G---------------------------------------------------------|
D------9-9-x-9-x-9--7-7-7---9-9-x-9-x-9--7-7-7------------|
A------9-9-x-9-x-9--7-7-7---9-9-x-9-x-9--7-7-7------------|
E------7-7-x-7-x-7--5-5-5---7-7-x-7-x-7--5-5-5------------|

Bridge
e---------------------------------------------------------|
B---------------------------------------------------------|
G---------------------------------------------------------| repeat 6 times
D------4-4--4-4-4--2-2-2---4-4--4-4-4--2-2-2--------------|   then...
A------4-4--4-4-4--2-2-2---4-4--4-4-4--2-2-2--------------|
E------2-2--2-2-2--0-0-0---2-2--2-2-2--0-0-0--------------|

...
e----------------------------------------------------------|
B----------------------------------------------------------|
G----------------------------------------------------------|
D------4-4--4--11--11---4-4--4-4-4--2-2-2------------------|
A------4-4--4--11--11---4-4--4-4-4--2-2-2------------------|
E------2-2--2---9---9---2-2--2-2-2--0-0-0------------------|

e---------------------------------------------------------|
B---------------------------------------------------------|
G---------------------------------------------------------|
D------4-4--4--11--11--11-11-11-11-11-11-11-11-11---------|
A------4-4--4--11--11--11-11-11-11-11-11-11-11-11---------|
E------2-2--2---9---9---9--9--9--9--9--9--9--9--9---------|


End Chorus
e---------------------------------------------------------|
B---------------------------------------------------------|
G-----------5-5-5-------7-7-7--4-4-4-4-4-4-4--------------|
D------5-5--5-5-5--5-5--7-7-7--4-4-4-4-4-4-4--------------|
A------5-5--3-3-3--5-5--5-5-5--2-2-2-2-2-2-2--------------|
E------3-3---------3-3------------------------------------|


e---------------------------------------------------------|
B---------------------------------------------------------|
G-----------5-5-5-------7-7-7--4~-------------------------|
D------5-5--5-5-5--5-5--7-7-7--4~-------------------------|
A------5-5--3-3-3--5-5--5-5-5--2~-------------------------|
E------3-3---------3-3------------------------------------|


Order:
intro     x4
verse (A) x8
verse (B) x2
verse (A) x2

chorus
riff      x2

verse (A) x4
verse (B) x2
verse (A) x2

chorus
bridge (i've already explain the bridge)

verse (A) x4
verse (B) x2
verse (A) x2

end chorus
:)
            
Tabs too difficult? Try these video lessons and learn fast.


comments powered by Disqus
↑ Back to top | Tablatures and chords are parodies/interpretations of the original songs. You may use it for private study, scholarship, research or language learning purposes only