>
 >
Amazed 2

Amazed 2 Guitar Tabs

Offspring - Amazed 2 chords, tabs, tablatures, lyrics

Guitar lessons | Add/correct | Request | Top 50 tabs Artists:  A B C D E F G H I J K L M N O P Q R S T U V W X Y Z 0-9

Amazed 2 Guitar Tabs – Offspring

CD, Sheet music, Poster

Do you like Amazed 2? Share with your friends now
Bass TabsChordsTabsTabs v2Tabs v3Ukulele
Amazed 
Offspring


Intro
E-------------------------------------------
B-------------------------------------------
G-------------------------------------------
D7*-5*-12*-10*--------------------------------------
A7*-5*-12*-10*-------------------------------------
E5*-3*-10*-8-*------------------------------------

E---------8---------8-----8-10-8---8--------
B-10----12--10----12----12-------12---------
G-------------------------------------------2X
D-------------------------------------------
A-------------------------------------------
E-------------------------------------------
Verse: No guitar

Pre-Chorus
E-------------------------------------------
B-------------------------------------------
G-------------------------------------------
D-----------------------------------2X--------
A--0---23-0---23-0-235323-------------------------------
E-------------------------------------------
Chorus
E-------------------------------------------
B-------------------------------------------
G-------------------------------------------
D-7*--10*--10*-10*-5*--7*----------------------------------
A-7*--10*--10*-10*-5*--7*-------2x---------------------------
E-5*--8-*--12*-12*-3*--5*---------------------------------

then

E-------------------------------------------
B-------------------------------------------
G-------------------------------------------
D7*-5*-12*-10*--------------------------------------
A7*-5*-12*-10*-------------------------------------
E5*-3*-10*-8-*------------------------------------

E---------8---------8-----8-10-8---8--------
B-10----12--10----12----12-------12---------
G-------------------------------------------2X
D-------------------------------------------
A-------------------------------------------
E-------------------------------------------

Verse
Pre-Chorus
E-------------------------------------------
B-------------------------------------------
G-------------------------------------------
D-----------------------------------2X--------
A--0---23-0---23-0-235323-------------------------------
E-------------------------------------------


Chorus
E-------------------------------------------
B-------------------------------------------
G-------------------------------------------
D-7*--10*--10*-10*-5*--7*----------------------------------
A-7*--10*--10*-10*-5*--7*-------2x---------------------------
E-5*--8-*--12*-12*-3*--5*---------------------------------

Then play intro

E-------------------------------------------
B-------------------------------------------
G-------------------------------------------
D-----------7-----------------------------------------
A-finish on-7---------------------------------------
E-----------5-----------------------------------------





Comments


Popular Offspring tabs & chords
Feelings Bass Tabs
Let It Right 1 Bass Tabs
Special Delivery 2 Bass Tabs
Why Don't You Get A Job? Bass Tabs
Cool To Hate Drum Tabs
(Can't Get My) Head Around You Tabs
Conspiracy Of One 1 Tabs
Denial Tabs
Original Prankster 9 Tabs
Self Esteem 2 Tabs


Song lyrics



↑ Back to top | Tablatures and chords are parodies/interpretations of the original songs. You may use it for private study, scholarship, research or language learning purposes only
© 2014 AZChords.com Contact us | Privacy policy | DMCA | Add/correct tabs | Request tabs | Top 50 tabs