» » »

Amazed Tabs (ver.3)

Artists:  A B C D E F G H I J K L M N O P Q R S T U V W X Y Z # 

Amazed Tabs (ver.3)

Offspring
Rating:
0/5 (0 votes)

Tabs too difficult? Try these video lessons and learn fast.
                Amazed 
Offspring


Intro
E-------------------------------------------
B-------------------------------------------
G-------------------------------------------
D—7*-5*-12*-10*--------------------------------------
A—7*-5*-12*-10*-------------------------------------
E—5*-3*-10*-8-*------------------------------------

E---------8---------8-----8-10-8---8--------
B-10----12--10----12----12-------12---------
G-------------------------------------------2X
D-------------------------------------------
A-------------------------------------------
E-------------------------------------------
Verse: No guitar

Pre-Chorus
E-------------------------------------------
B-------------------------------------------
G-------------------------------------------
D-----------------------------------2X--------
A--0---23-0---23-0-235323-------------------------------
E-------------------------------------------
Chorus
E-------------------------------------------
B-------------------------------------------
G-------------------------------------------
D-7*--10*--10*-10*-5*--7*----------------------------------
A-7*--10*--10*-10*-5*--7*-------2x---------------------------
E-5*--8-*--12*-12*-3*--5*---------------------------------

then

E-------------------------------------------
B-------------------------------------------
G-------------------------------------------
D—7*-5*-12*-10*--------------------------------------
A—7*-5*-12*-10*-------------------------------------
E—5*-3*-10*-8-*------------------------------------

E---------8---------8-----8-10-8---8--------
B-10----12--10----12----12-------12---------
G-------------------------------------------2X
D-------------------------------------------
A-------------------------------------------
E-------------------------------------------

Verse
Pre-Chorus
E-------------------------------------------
B-------------------------------------------
G-------------------------------------------
D-----------------------------------2X--------
A--0---23-0---23-0-235323-------------------------------
E-------------------------------------------


Chorus
E-------------------------------------------
B-------------------------------------------
G-------------------------------------------
D-7*--10*--10*-10*-5*--7*----------------------------------
A-7*--10*--10*-10*-5*--7*-------2x---------------------------
E-5*--8-*--12*-12*-3*--5*---------------------------------

Then play intro

E-------------------------------------------
B-------------------------------------------
G-------------------------------------------
D-----------7-----------------------------------------
A-finish on-7---------------------------------------
E-----------5-----------------------------------------
            
Tabs too difficult? Try these video lessons and learn fast.




comments powered by Disqus
↑ Back to top | Tablatures and chords are parodies/interpretations of the original songs. You may use it for private study, scholarship, research or language learning purposes only