» » »

All I Want Tabs (ver.2)

Artists:  A B C D E F G H I J K L M N O P Q R S T U V W X Y Z # 

All I Want Tabs (ver.2)

Offspring
Rating:
5/5 (16 votes)

Tabs too difficult? Try these video lessons and learn fast.
                -------------------------------------------------------------------------------
                          ALL I WANT - The Offspring
-------------------------------------------------------------------------------

Tuning:  Standard (EADGBe)

Tempo: 180 BPM - Fast Rock

Performance Notes:  This is tabbed out for one guitar; 
both Dexter and Noodles play the exact same thing live.

Pre-Verse
e|-------------------------------------------|
B|-------------------------------------------|
G|-11-11-11-11-9-11-11-9-7-7-7-7-7-9-9-9-9-9-|
D|-11-11-11-11-9-11-11-9-7-7-7-7-7-9-9-9-9-9-|
A|--9--9--9--9-7--9--9-7-5-5-5-5-5-7-7-7-7-7-|
E|-------------------------------------------|

e|--------------------------------------|
B|---------------------------------10---|
G|-11-11-11-11-9-11-11-9-7-7-7-7-7--9-9-|
D|-11-11-11-11-9-11-11-9-7-7-7-7-7--7-9-|
A|--9--9--9--9-7--9--9-7-5-5-5-5-5----7-|
E|--------------------------------------|

Verse (x2) (When playing live, Noodles does a pickscr*pe over the bass solo)
e|--------------|------------------|-----------------------------|
B|--------------|------------------|------------------------10---|
G|--------------|-b--------s-------|--------------7-7-7-7-7-9--9-|
D|--------------|---a--------o-----|--------------7-7-7-7-7-7--9-|
A|-4-4-4-4-4-4:-|-----s--------l---|-4-4-4-4-4-4:-5-5-5-5-5----7-|
E|-2-2-2-2-0-2:-|-------s--------o-|-2-2-2-2-0-2:----------------|
pm X X X X X                         X X X X X X

Chorus (x4)
e|-----------------------------------------------------|
B|-----------------------------------------------------|
G|-11-11-11--11-11--7-7-7--7-7--------------9-9-9--9-9-|
D|-11-11-11--11-11--7-7-7--7-7--7-7-7--7-7--9-9-9--9-9-|
A|--9--9--9---9--9--5-5-5--5-5--7-7-7--7-7--7-7-7--7-7-|
E|------------------------------5-5-5--5-5-------------|

Repeat Pre-Verse, Verse (x2), and Chorus (x4)

Bridge
e|-------------------------------------|
B|-------------------------------------|
G|-7-7--7-9---11-11--9-9---7-7--7-9--9-|
D|-7-7--7-9---11-11--9-9---7-7--7-9--9-|
A|-5-5--5-7----9--9--7-7---5-5--5-7--7-|
E|-------------------------------------|
(When playing live, Noodles does a pickscr*pe  X <-there)
e|---------------------------------------------|----------------|
B|---------------------------------------------|----------------|
G|-7-----------------------------6-------------|----------------|
D|-7-7-7-7-7-7-7-7-7-7-7-7-7-7-7-6-6-6-6-6-6-6-6-6-6-6-6-6-6-6--|
A|-5-5-5-5-5-5-5-5-5-5-5-5-5-5-5-4-4-4-4-4-4-4-4-4-4-4-4-4-4-4--|
E|---------------------------------------------|----------------|

Repeat Chorus (x2)

Outro pt. 1 (x3)
e|-----------------------------|
B|-----------------------------|
G|-11-11-11--11-11--7-7-7--7-7-|
D|-11-11-11--11-11--7-7-7--7-7-|
A|--9--9--9---9--9--5-5-5--5-5-|
E|-----------------------------|

Outro pt. 2 (When playing live, Noodles slides down out of the last chord)
e|------------------------------|
B|------------------------------|
G|--------------9-9--9-9--9--11-|
D|-7-7-7--7-7---9-9--9-9--9--11-|
A|-7-7-7--7-7---7-7--7-7--7---9-|
E|-5-5-5--5-5-------------------|


There you go, hope I was of some help.

| /  slide up
| \  slide down
| h  hammer-on
| p  pull-off
| ~  vibrato
| +  harmonic
| x  Mute note
===============================================================================
            
Tabs too difficult? Try these video lessons and learn fast.




comments powered by Disqus
↑ Back to top | Tablatures and chords are parodies/interpretations of the original songs. You may use it for private study, scholarship, research or language learning purposes only