>
 >
All Along 2

All Along 2 Guitar Tabs

Offspring - All Along 2 chords, tabs, tablatures, lyrics

Guitar lessons | Add/correct | Request | Top 50 tabs Artists:  A B C D E F G H I J K L M N O P Q R S T U V W X Y Z 0-9

All Along 2 Guitar Tabs – Offspring

CD, Sheet music, Poster

Do you like All Along 2? Share with your friends now
Bass TabsChordsTabsTabs v2Tabs v3Ukulele

I like this song, not necessarily the song itself but I like
playing it. It's a cool song to play. It's all straight chords
pretty much, it's not terribly easy to play but it's not hard.



 Intro: (dist.)

    E                    D              G        G#
e|---------------------------------------------------
B|--9--9-----9--9--9--9--7--7--7-----0---------------
G|--9--9-----9--9--9--9--7--7--7-----0--4--4--4--5---
D|--9--9-----9--9--9--9--7--7--7-----0--5--5--5--6---
A|--7--7-----7--7--7--7--5--5--5-----0--5--5--5--6---
E|--------------------------------------3--3--3--4---

    A                       C        G
 ---------------------------------------------------|
 ------------------------0--5-----5--12-12----12----|
 ---6--6-----6--6--6--6--0--5-----5--12-12----12----|
 ---7--7-----7--7--7--7--0--5-----5--12-12----12----|
 ---7--7-----7--7--7--7--0--3-----3--10-10----10----|
 ---5--5-----5--5--5--5-----------------------------|

 [played twice]


 1st Verse: (dist.) Palm muted

 This isn't the proper rhythm for this part but it goes
 something like this, just make sure you palm mute it.

 |---------------------------------------------------
 |---------------------------------------------------
 |---------------------------------------------------
 |---------------------------------------------------
 |--------------------------5--5--5--5--5--5--5--5---
 |--0--0--0--0--0--0--0--0---------------------------
      Deep  inside, secrets burning

 ----------------------------------------------------
 ----------------------------------------------------
 ----------------------------------------------------
 ----------------------------------------------------
 ---------------------------3--3--3--3---------------
 ---5--5--5--5--5--5--5--5--------------3--3--3--3---
    Should have known all the while what's true

 ----------------------------------------------------
 ----------------------------------------------------
 ----------------------------------------------------
 ----------------------------------------------------
 ---------------------------5--5--5--5--5--5--5--5---
 ---0--0--0--0--0--0--0--0---------------------------
     Went along        to  fool myself

                                        G [not palm muted]
 ----------------------------------------------------|
 ---------------------------------------12----12-----|
 ---------------------------------------12----12-----|
 ---------------------------------------12----12-----|
 ---------------------------3--3--3--3--10----10-----|
 ---5--5--5--5--5--5--5--5---------------------------|
       Can't go on    I    can't   es - cape  it


 Chorus: (dist.)

    E                    D
 |---------------------------------------------------
 |--9--9-----9--9--9--9--7--7--7-----7--7--7--7--7---
 |--9--9-----9--9--9--9--7--7--7-----7--7--7--7--7---
 |--9--9-----9--9--9--9--7--7--7-----7--7--7--7--7---
 |--7--7-----7--7--7--7--5--5--5-----5--5--5--5--5---
 |---------------------------------------------------
      All   along           I think  I really knew

    A                       C        G
 ---------------------------------------------------|
 ------------------------0--5-----5--12-12----12----|
 ---6--6-----6--6--6--6--0--5-----5--12-12----12----|
 ---7--7-----7--7--7--7--0--5-----5--12-12----12----|
 ---7--7-----7--7--7--7--0--3-----3--10-10----10----|
 ---5--5-----5--5--5--5-----------------------------|
       It   was there in the words un - spo - ken

All along, still believed in you
Now I live here betrayed and broken
Oh, oh, o - o - oh


 2nd Verse: (dist.) Same as 1st Verse

Close my eyes from the burning
All along all the while what's true
Take it on, or turn your back
Either way, you can't escape it


 Chorus: (dist.)

    E                    D
 |---------------------------------------------------
 |--9--9-----9--9--9--9--7--7--7-----7--7--7--7--7---
 |--9--9-----9--9--9--9--7--7--7-----7--7--7--7--7---
 |--9--9-----9--9--9--9--7--7--7-----7--7--7--7--7---
 |--7--7-----7--7--7--7--5--5--5-----5--5--5--5--5---
 |---------------------------------------------------
      All   along           I think  I really knew

    A                       C        G
 ---------------------------------------------------|
 ------------------------0--5-----5--12-12----12----|
 ---6--6-----6--6--6--6--0--5-----5--12-12----12----|
 ---7--7-----7--7--7--7--0--5-----5--12-12----12----|
 ---7--7-----7--7--7--7--0--3-----3--10-10----10----|
 ---5--5-----5--5--5--5-----------------------------|
       It   was there in the words un - spo - ken

All along, still believed in you
Now I live here betrayed and broken

    E5 [fades out]
 |---------------------------------------------------------|
 |---------------------------------------------------------|
 |--9----------------------------------------------9--9----|
 |--9----------------------------------------------x--x----|
 |--7----------------------------------------------7--7----|
 |---------------------------------------------------------|

 [pick slide]


 Interlude: (dist.) Palm muted

    E5                      D5
 |---------------------------------------------------
 |---------------------------------------------------
 |---------------------------------------------------
 |--------------------------7--7---------------------
 |--2--2--------------------5--5---------------------
 |--0--0---------------------------------------------

    A5                      C5          G5
 ----------------------------------------------------
 ----------------------------------------------------
 ----------------------------------------------------
 ---------------------------5--5---------------------
 ---7--7--------------------3--3--------5--5---------
 ---5--5--------------------------------3--3---------

    E5                      D5
 ----------------------------------------------------
 ----------------------------------------------------
 ----------------------------------------------------
 ---------------------------7--7---------------------
 ---2--2--------------------5--5---------------------
 ---0--0---------------------------------------------

    A5                                  G
 ----------------------------------------------------|
 ---------------------------------------12----12-----|
 ---14--\-------------------------------12----12-----|
 ---14--\-------------------------------12----12-----|
 ---12--\-------------------------------10----10-----|
 ----------------------------------------------------|

 [play Chorus again]


 Outro: (dist.)

     A                       C           G           E
 |-------------------------------------------------------|
 |---------------------------5-----5-----12----12----9---|
 |---6-----------------6-----5-----5-----12----12----9---|
 |---7-----------------7-----5-----5-----12----12----9---|
 |---7-----------------7-----3-----3-----12----12----7---|
 |---5-----------------5---------------------------------|
        All  along     I    still  be - lived  in   you


_______________________________________________________________





Comments


Popular Offspring tabs & chords
All Along Bass Tabs
Da Hui Bass Tabs
Damn It I Changed Again 1 Bass Tabs
Genocide Bass Tabs
Gone Away 2 Bass Tabs
Feelings Chords
Bloodstains Tabs
Cruising California Bumpin In My Trunk 1 Tabs
Total Immortal Tabs
Gone Away Ukulele


Song lyrics



↑ Back to top | Tablatures and chords are parodies/interpretations of the original songs. You may use it for private study, scholarship, research or language learning purposes only
© 2014 AZChords.com Contact us | Privacy policy | DMCA | Add/correct tabs | Request tabs | Top 50 tabs