» » »

52 Girls Tabs (ver.1)

Artists:  A B C D E F G H I J K L M N O P Q R S T U V W X Y Z # 

52 Girls Tabs (ver.1)

The Offspring
Rating:
0/5 (0 votes)

Hard to play? Try these video lessons and learn fast.
                Released: 
Track: 

pm - palm mute


intro

|---------------------|
|---------------------|
|---------------7-5---|
|-7-7-7-7-7-7-7-7-5-5-|
|-7-7-7-7-7-7-7-5-3-5-|
|-5-5-5-5-5-5-5-----3-|

verse
pm_______________________|
|---------------------------------------------|
|---------------------------------------------|
|-------------------------7-7-7-7-7-7-5-5-----|
|-7-7-7-7-7-7-7-7-7-7-7-7-7-7-7-7-7-7-5-5-5-5-|
|-7-7-7-7-7-7-7-7-7-7-7-7-5-5-5-5-5-5-3-3-5-5-|
|-5-5-5-5-5-5-5-5-5-5-5-5-----------------3-3-|
pm_________________|
|---------------------------------------|
|---------------------------------------|
|-------------------7-7-7-7-7-7-5-5-----|
|-------------------7-7-7-7-7-7-5-5-5-5-|
|-0-3-5-3-0-0-3-5-3-5-5-5-5-5-5-3-3-5-5-|
|-----------------------------------3-3-|

chorus

|------------------------------------------------------------------
|------------------------------------------------------------------
|-------------5-5-5-5-5-5-7----------------------------------7-5---
|-7-7-7-7-7-7-5-5-5-5-5-5-7-5-5-5-7-7-7-7-7-7--7-7-7-7-7-7-7-7-5-5-
|-7-7-7-7-7-7-3-3-3-3-3-3-5-5-5-5-7-7-7-7-7-7--7-7-7-7-7-7-7-5-3-5-
|-5-5-5-5-5-5---------------3-3-3-5-5-5-5-5-5--5-5-5-5-5-5-5-----3-

 ---------------------|
 ---------------------|
 ---------------7-5---|
 -7-7-7-7-7-7-7-7-5-5-|
 -7-7-7-7-7-7-7-5-3-5-|
 -5-5-5-5-5-5-5-----3-|

"these are the girls of the usa" - starts off by palm muting then gradually plays w/o
pm______________________________________________|
|-----------------------------------------------|
|-----------------------------------------------|
|-----------------------5-5-5-5-5-5-7-7-7-7-7-7-|
|-7-7-7-7-7-7-7-7-7-7-7-5-5-5-5-5-5-7-7-7-7-7-7-|
|-7-7-7-7-7-7-7-7-7-7-7-3-3-3-3-3-3-5-5-5-5-5-5-|
|-5-5-5-5-5-5-5-5-5-5-5-------------------------|

lyrics

shelly, jane, laura, and stacey 
see them on the beach 
or in new york city 
jennifer and cyndee 
and sascha and marvin 
can you name, name, name, name them today 
can you name, name, name, name them today 
chelsea and gloria and wendy and glenda 
these are the girls of the usa 
the principal girls of the usa 
can you name, name, name, name them today 
can you name, name, name, name them today 
oh rose, rose and denise 
and michelle and randi, kamala and roma 
cynthia and iisa, tammi and virginia 
and stephanie and jamie-o 
these are the girls of the usa 
the principal girls of the usa 
can you name, name, name, name them today 
can you name, name, name, name them today
            
Hard to play? Try these video lessons and learn fast. | Correct




comments powered by Disqus
↑ Back to top | Tablatures and chords are parodies/interpretations of the original songs. You may use it for private study, scholarship, research or language learning purposes only