» » »

Untouchable Bass tabs (ver.1)

Artists:  A B C D E F G H I J K L M N O P Q R S T U V W X Y Z # 

Untouchable Bass tabs (ver.1)

Off By One
Rating:
0/5 (0 votes)

Hard to play? Try these video lessons and learn fast.
                
Intro(bass enters 0:04)
G:--------------------------------------|  |------------------|
D:--------------------------------------|  |------------------|
A:-----5~~~-----------------------------|x1|-55555------------|x4
E:-3333---------------------------------|  |------5-7-7777333-|

Verse 1
G:------------------------------------------------------------------|
D:------------------------------------------------------------------|
A:-5555555555555555-------------------------------------------------|x1
E:-----------------555555555555555577777777777777773333333333333333-|

G:------------------------------------------------------------------|
D:------------------------------------------------------------------|
A:-5555555555555555-------------------------------------------------|x1
E:-----------------55555555555555557777777777777777333333333--------|

Chorus
G:------------------------------------------------------------------|
D:---------77-55-4--------------------------------------------------|
A:-55555555----------------44-55-7---------99-77-5------------------|x2
E:-----------------55555555--------77777777--------3333333333333333-|

Post Chorus
G:------------------|
D:------------------|
A:-55555------------|x4
E:------5-7-7777333-|

Verse 2
G:------------------------------------------------------------------|
D:------------------------------------------------------------------|
A:-5555555555555555-------------------------------------------------|x2
E:-----------------555555555555555577777777777777773333333333333333-|

Repeat:
Chorus
Post Chorus

Bridge
G:------------------------------------------------------------------|
D:-------------------------------------------------55-555-555-555-5-|
A:-55-555-555-555-577-777-777-777-799-999-999-999-9-----------------|x2
E:------------------------------------------------------------------|

G:------------------------------------------------------------------|
D:------------------------------------------------------------------|
A:-5~~~~~~~------------------------5~~~~~~~-------------------------|x1
E:-----------------------------3333---------------------------------|

Chorus
G:------------------------------------------------------------------|
D:---------77-55-4--------------------------------------------------|
A:-55555555----------------44-55-7---------99-77-5------------------|x4
E:-----------------55555555--------77777777--------3333333333333333-|

Outro
G:------------------|
D:------------------|
A:-55555------------|x4
E:------5-7-7777333-|
            
Hard to play? Try these video lessons and learn fast. | Correct




comments powered by Disqus
↑ Back to top | Tablatures and chords are parodies/interpretations of the original songs. You may use it for private study, scholarship, research or language learning purposes only