» » »

Off By One, Try Tabs (ver.6)

Artists:  A B C D E F G H I J K L M N O P Q R S T U V W X Y Z # 

Try Tabs (ver.6)

Off By One Tabs
 Rating:
4/5 (4 votes)
Try lessons Tabs too difficult? Try these video lessons and learn fast
1
                (Acoustic)
The song short and simple.

Intro:
Guitar 1
Eb -------------------------------------------------
Bb -------------------------------------------------
Gb ----1----1---------------------------------------
Db -------------------------5—---5-888-66656--------	x2
Ab ---------------6-5-6--4-4--4-4-------------------
Eb -1-1--1-1---4-4----------------------------------

Eb -------------------------------------------------
Bb -------------------------------------------------
Gb -------------------------------------------------
Db -888-66656-888-66656-888-66656-101010-888-6665656
Ab -------------------------------------------------
Eb -------------------------------------------------

Verse:
Guitar 2
(plays and repeats this all throughout the song)
Eb -------------------------------------------------
Bb -------------------------------------------------
Gb -------------------------------------------------
Db -6-6-6-6-6-6-6-6-6-6-6-6-8-8-8-8-6-6-8-8---------
Ab -8-8-8-8-4-4-4-4-6-6-6-6-6-6-6-6-6-6-6-6---------
Eb -------------------------------------------------

Guitar 1
Eb -------------------------------------------------
Bb -------------------------------------------------
Gb -------------------------------------------------
Db -6-8-6-6--6-5-6-6--6-5-6-8-6-5-6-6---------------
Ab -------------------------------------------------
Eb -------------------------------------------------

Eb -------------------------------------------------
Bb -------------------------------------------------
Gb -------------------------------------------------
Db -6-8-10-6--6-5-8-6--6-5-6-8-10-6-5-6-------------
Ab -----------------------------------8-------------
Eb -------------------------------------------------

Chorus:
Both Guitars
Eb -------------------------------------------------
Bb -------------------------------------------------
Gb -------------------------------------------------
Db -6-6-6-6-6-6-6-6-6-6-6-6-8-8-8-8-6-6-8-8---------	x4
Ab -8-8-8-8-4-4-4-4-6-6-6-6-6-6-6-6-6-6-6-6---------
Eb -------------------------------------------------
	Down strum lots in the chorus


Riff
Guitar 1
Eb ------------------------------------------------- 
Bb -------------------------------------------------
Gb -------------------------------------------------
Db -6-10-6-6-8-6-6-8-10-8-6-5-5---------------------	x4
Ab -------------------------------------------------
Eb -------------------------------------------------

There is some palm muting in there, just listen to the 
song and you’ll get it or just look at the extended tab
 with the times and such.  Nice and easy.  Enjoy!
            
Submit corrections

comments powered by Disqus
↑ Back to top | Off By One Tabs for Try. Lyrics for acoustic guitar and electric guitar. 1 Tablatures and chords are parodies/interpretations of the original songs. You may use it for private study, scholarship, research or language learning purposes only