» » »

Off By One, Try Tabs (ver.5)

Artists:  A B C D E F G H I J K L M N O P Q R S T U V W X Y Z # 

Try Tabs (ver.5)

Off By One Tabs
 Rating:
4/5 (4 votes)
Try lessons Tabs too difficult? Try these video lessons and learn fast
1
                (Acoustic)
I have looked everywhere for a tab for this song but
I couldn’t find it, so I sat down and gave it a try 
with some help from my cousin.  This song is fun and
easy to play and its 99.9% correct.  Enjoy!

Intro:
Guitar 1
00:00
Eb -------------------------------------------------
Bb -------------------------------------------------
Gb ----1----1---------------------------------------
Db ---------------6-5-6-----5—---5-888-66656--------	x2
Ab ----------------------4-4--4-4-------------------
Eb -1-1--1-1---4-4-4--------------------------------

(Guitar 2 enters)
00:14
Eb -------------------------------------------------
Bb -------------------------------------------------
Gb ----1----1---------------------------------------
Db ---------------6-5-6-----5—---5------------------
Ab ----------------------4-4--4-4-------------------
Eb -1-1--1-1---4-4-4--------------------------------

00:18
Eb -------------------------------------------------
Bb -------------------------------------------------
Gb -------------------------------------------------
Db -888-66656-888-66656-888-66656-101010-888-66656--
Ab -------------------------------------------------
Eb -------------------------------------------------

00:26-00:32
Eb -------------------------------------------------
Bb -------------------------------------------------
Gb -------------------------------------------------
Db 5-6-5-6-5-6-5-6-5-6-5-6-5-6-5-6-5-6-5-6-5-6-5-6-5	x2
Ab -------------------------------------------------
Eb -------------------------------------------------

Guitar 2
00:14
Eb -------------------------------------------------
Bb -------------------------------------------------
Gb -------------------------------------------------
Db -6-6-6-6-6-6-6-6-6-6-6-6-8-8-8-8-6-6-8-8---------
Ab -8-8-8-8-4-4-4-4-6-6-6-6-6-6-6-6-6-6-6-6---------
Eb -------------------------------------------------

00:18
Eb -------------------------------------------------
Bb -------------------------------------------------
Gb -------------------------------------------------
Db -6-6-6-6-6-6-6-6-6-6-6-6-8-8-8-8-6-6-8-8---------
Ab -8-8-8-8-4-4-4-4-6-6-6-6-6-6-6-6-6-6-6-6---------
Eb -------------------------------------------------

00:26
Eb -------------------------------------------------
Bb -------------------------------------------------
Gb -------------------------------------------------
Db -6-6-6-6-6-6-6-6-6-6-6-6-8-8-8-8-6-6-8-8---------
Ab -8-8-8-8-4-4-4-4-6-6-6-6-6-6-6-6-6-6-6-6---------
Eb -------------------------------------------------
   …………………………pm…………………………………………………………………pm…………………………

00:32
Eb -------------------------------------------------
Bb -------------------------------------------------
Gb -------------------------------------------------
Db -6-6-----6-6-----6-6-----8-8-----6---8-----------
Ab -8-8-----4-4-----6-6-----6-6-----6---6-----------
Eb -------------------------------------------------

Verse:
Guitar 2
00:38-01:04
Eb -------------------------------------------------
Bb -------------------------------------------------
Gb -------------------------------------------------
Db -6-6-6-6-6-6-6-6-6-6-6-6-8-8-8-8-6-6-8-8---------
Ab -8-8-8-8-4-4-4-4-6-6-6-6-6-6-6-6-6-6-6-6---------
Eb -------------------------------------------------
   …………………………pm…………………………………………………………………pm…………………………

Guitar 1
00:45
Eb -------------------------------------------------
Bb -------------------------------------------------
Gb -------------------------------------------------
Db -6-8-6-6--6-5-6-6--6-5-6-8-6-5-6-6---------------
Ab -------------------------------------------------
Eb -------------------------------------------------

00:57
Eb -------------------------------------------------
Bb -------------------------------------------------
Gb -------------------------------------------------
Db -6-8-10-6--6-5-8-6--6-5-6-8-10-6-5-6-------------
Ab -----------------------------------8-------------
Eb -------------------------------------------------

Chorus:
Both Guitars
01:07
Eb -------------------------------------------------
Bb -------------------------------------------------
Gb -------------------------------------------------
Db -6-6-6-6-6-6-6-6-6-6-6-6-8-8-8-8-6-6-8-8---------	x4
Ab -8-8-8-8-4-4-4-4-6-6-6-6-6-6-6-6-6-6-6-6---------
Eb -------------------------------------------------
	Down strum lots in the chorus

Riff
Guitar 1
02:33
Eb ------------------------------------------------- 
Bb -------------------------------------------------
Gb -------------------------------------------------
Db -6-10-6-6-8-6-6-8-10-8-6-5-5---------------------	x4
Ab -------------------------------------------------
Eb -------------------------------------------------

Guitar 2
02:39
Eb -------------------------------------------------
Bb -------------------------------------------------
Gb -------------------------------------------------
Db –6------6-----6------8---------------------------
Ab -8------4-----6------6---------------------------
Eb -------------------------------------------------

02:45
Eb -------------------------------------------------
Bb -------------------------------------------------
Gb -------------------------------------------------
Db –6------6-----6-6666-88888-----------------------
Ab -8------4-----6-6666-66666-----------------------
Eb -------------------------------------------------
		 …………pm…………
02:52
Eb -------------------------------------------------
Bb -------------------------------------------------
Gb -------------------------------------------------
Db –66666--66666-66666-88888------------------------
Ab -88888--44444-66666-66666------------------------
Eb -------------------------------------------------
     …………pm …………… ………pm …………

Order:
Intro
Verse
Chorus
Verse
Chorus
Riff
Verse
Chorus
            
Submit corrections

comments powered by Disqus
↑ Back to top | Off By One Tabs for Try. Lyrics for acoustic guitar and electric guitar. 1 Tablatures and chords are parodies/interpretations of the original songs. You may use it for private study, scholarship, research or language learning purposes only