» » »

Torn Tabs (ver.1)

Artists:  A B C D E F G H I J K L M N O P Q R S T U V W X Y Z # 

Torn Tabs (ver.1)

Off By One
Rating:
5/5 (1 vote)

Tabs too difficult? Try these video lessons and learn fast.
                
This is not mine

Standard Tuning eBGDAE


Intro:
 |----------------x5|--------|    
 |------------------|--------|        
 |------------------|--------|
 |--4-4/7-----------|--------|
 |--2-2/5--5-5/7----|---7~---|
 |---------3-3/5----|---5~---|

Verse 1:
|---------------------------------------------|  x2
|---------------------------------------------|
|---------------------------------------------|
|--77-7-7-77-7-7------------------------------|
|--55-5-5-55-5-5--44-4-4-44-4-4--55-5-5-55-5-5|
|-----------------22-2-2-22-2-2--33-3-3-33-3-3|
 p.m._________________________________________

Prechorus:
|---------------------------------------------|  x1
|---------------------------------------------|
|---------------------------------------------|
|--77777777-----------------------------------|
|--55555555--77777777--44444444--77777777-----|
|------------55555555--22222222--55555555-----|

Chorus:
|---------------------------------------------|  x3
|---------------------------------------------|
|---------------------------------------------|
|--77777777-----------------------------------|
|--55555555--77777777--99999999--55555555-----|
|------------55555555--77777777--33333333-----|

Verse 2:
|---------------------------------------------|  x1
|---------------------------------------------|
|---------------------------------------------|
|--77-7-7-77-7-7------------------------------|
|--55-5-5-55-5-5--77-7-7-77-7-7--55-5-5-55-5-5|
|-----------------55-5-5-55-5-5--33-3-3-33-3-3|

Prechorus:
|---------------------------------------------|  x1
|---------------------------------------------|
|---------------------------------------------|
|--77777777-----------------------------------|
|--55555555--77777777--44444444--77777777-----|
|------------55555555--22222222--55555555-----|

Chorus:
|---------------------------------------------|  x3
|---------------------------------------------|
|---------------------------------------------|
|--77777777-----------------------------------|
|--55555555--77777777--99999999--55555555-----|
|------------55555555--77777777--33333333-----|

Postchorus:
|---------------------|  x2
|---------------------|
|---------------------|
|---------------------|
|--99999999-55555555--|
|--77777777-33333333--|







Prechorus:
|---------------------|  x1
|---------------------|
|---------------------|
|--7~-----------------|
|--5~--7~--4~--7~-----|
|------5~--2~--5~-----|

Solo:
|---------------------------------------------------------------|
|---------------------------------------------------------------|
|--11-12--9--11-7--9--7--4--2--11-12--9--11-7--9--7--9--11--14--|
|--x--x---x--x--x--x--x--x--x--x--x---x--x--x--x--x--x--x---x---|
|--9--10--7--9--5--7--5--2--0--9--10--7--9--5--7--5--7--9---12--|
|---------------------------------------------------------------|

Chorus:
|---------------------------------------------|  x6
|---------------------------------------------|
|---------------------------------------------|
|--77777777-----------------------------------|
|--55555555--77777777--99999999--55555555-----|
|------------55555555--77777777--33333333-----|

Outro:
 |----------------x4|--------|    
 |------------------|--------|        
 |------------------|--------|
 |--4-4/7-----------|--------|
 |--2-2/5--5-5/7----|---9~---|
 |---------3-3/5----|---7~---|
            
Tabs too difficult? Try these video lessons and learn fast.




comments powered by Disqus
↑ Back to top | Tablatures and chords are parodies/interpretations of the original songs. You may use it for private study, scholarship, research or language learning purposes only