» » »

Off By One, Need Bass tabs (ver.1)

Artists:  A B C D E F G H I J K L M N O P Q R S T U V W X Y Z # 

Need Bass tabs (ver.1)

Off By One Tabs
Rating:
0/5 (0 votes)
Need lessons Tabs too difficult? Try these video lessons and learn fast
                
Intro(bass enters at 0:13)
G:------------------------------------|
D:------------------------------------|
A:-3~--------------5~~~---------------|x2
E:---------3~-------------------------|

G:----------------------------------|
D:----------------------------------|
A:-3-----------------------5~~~-----|x1
E:----------------------------------|

Verse
G:------------------|  |------------------|
D:-------------4455-|  |------------------|
A:-3333----5555-----|x3|-3333----55555555-|x1
E:-----3333---------|  |-----3333---------|

Chorus
G:------------------|
D:------------------|
A:-----555577773333-|x4
E:-3333-------------|

Repeat:
Verse
Chorus

Bridge
G:----------|  |----------------------------------|  
D:----------|  |----------------------------------|  
A:-3~~~-----|x1|-3~~~------------5---5---5-5-5-5--|x3
E:----------|  |---------3~~~---------------------|  

G:----------------------------------|  |----------------------------------|
D:----------------------------------|  |----------------------------------|
A:-3~~~------------5~~~~~~~---------|x1|-----------------5~~~~~~~---------|x1
E:---------3~~~---------------------|  |----------------------------------|

Chorus/Outro
G:------------------|
D:------------------|
A:-----555577773333-|x8
E:-3333-------------|

G:------------------------------------------------------------------|
D:------------------------------------------------------------------|
A:------------------------------------------------------------------|x1
E:-3~~~~~~~~~~~~~~~-------------------------------------------------|
            
Submit corrections

comments powered by Disqus
↑ Back to top | Off By One Bass for Need. Lyrics for acoustic guitar and electric guitar. Tablatures and chords are parodies/interpretations of the original songs. You may use it for private study, scholarship, research or language learning purposes only