» » »

Mr Universe Bass tabs (ver.1)

Artists:  A B C D E F G H I J K L M N O P Q R S T U V W X Y Z # 

Mr Universe Bass tabs (ver.1)

Off By One
Rating:
0/5 (0 votes)

Tabs too difficult? Try these video lessons and learn fast.
                
Intro(bass enters at 0:06)
G:----------------------------------|
D:----------------------------------|
A:----------------------------------|x1
E:-3~~~------------1~~~----3~~~-----|

G:----------------------------------|
D:----------------------------------|
A:---------3333---------------------|x2
E:-5555------------3333----1111-----|

G:----------------------------------|
D:----------------------------------|
A:----------------------------------|x1
E:-5~~~~~~~-------------------------|

Verse
G:------------------------------------------------------------------|
D:------------------------------------------------------------------|
A:------------------------------------------------------------------|x2
E:-55555555333333331~-11~-111-11~--55555555333333331111111111111111-|

Chorus
G:------------------------------------------------------------------|
D:------------------------------------------------------------------|
A:-33333--333333--3-------------------------------------------------|x2
E:-----------------33333--333333--311111111111111111111111111111111-|

Pre Verse
G:----------------------------------|
D:----------------------------------|
A:---------3333---------------------|x1
E:-5555------------3333----1111-----|

Repeat:
Verse
Chorus

Bridge
G:----------------------------------|
D:----------------------------------|
A:---------3333---------------------|x2
E:-5555------------3333----1111-----|

G:----------------------------------|
D:----------------------------------|
A:----------------------------------|x4
E:-5~------3~------1~~~-------------|

Repeat:
Chorus

Chorus 
G:-555555555555555512121212121212121212121212121212---------------------------------|
D:----------------------------------------------------------------------------------|
A:----------------------------------------------------------------------------------|x1
E:-------------------------------------------------11111111111111111111111111111111-|

G:------------------------------------------------------------------|
D:------------------------------------------------------------------|
A:-33333--333333--3-------------------------------------------------|x1
E:-----------------33333--333333--311111111111111111111111111111111-|

Outro
G:----------------------------------|
D:----------------------------------|
A:---------3333---------------------|x1
E:-5555------------3333----1111-----|

G:------------------------------------------------------------------|
D:------------------------------------------------------------------|
A:---------3333----------------3~--2~-------------------------------|x1
E:-5555------------3333----1111--------5~~~-------------------------|
            
Tabs too difficult? Try these video lessons and learn fast.


comments powered by Disqus
↑ Back to top | Tablatures and chords are parodies/interpretations of the original songs. You may use it for private study, scholarship, research or language learning purposes only