» » »

High School Tabs (ver.1)

Artists:  A B C D E F G H I J K L M N O P Q R S T U V W X Y Z # 

High School Tabs (ver.1)

Off By One
Rating:
0/5 (0 votes)

Tabs too difficult? Try these video lessons and learn fast.
                This is all I've got tabbed out so far. It sounds right to me.

x= mute (note: You don't have to play these notes because the second guitar plays during those parts, but I do.)

Intro:

E|-----------------------------------------------------------------------------------
B|-----------------------------------------------------------------------------------
G|-----------------------------------------------------------------------------------
D|-------4---5---4-4-----4---5---4-4-----4---5---4-4-----4-5-----4-5-----4---5-7-5-4-
A|---5-5---5---5-----------------------------------------------------5-5---5---------
E|-------------------5-5---5---5-----7-7---7---7-----3-3-----3-3---------------------
     x x   x   x     x x   x   x     x x   x   x     x x     x x     x x   x
-------4---5-7-5-4-----4---5---4-4-----5-4-0----------------------
---5-5---5---------7-7---7---7-----3-3----------------------------
   x x   x         x x   x   x     x x
            
Tabs too difficult? Try these video lessons and learn fast.




comments powered by Disqus
↑ Back to top | Tablatures and chords are parodies/interpretations of the original songs. You may use it for private study, scholarship, research or language learning purposes only