» » »

Off By One, Deja Vu Tabs (ver.1)

Artists:  A B C D E F G H I J K L M N O P Q R S T U V W X Y Z # 

Deja Vu Tabs (ver.1)

Off By One Tabs
 Rating:
4/5 (4 votes)
Deja Vu lessons Tabs too difficult? Try these video lessons and learn fast
1
                Standard Tuning eBGDAE

Intro:
|--------------------------------|  x1
|--------------------------------|
|4~--4444------------4~--4444----|
|4~--4444--5~--5555--4~--4444--5~|
|2~--2222--5~--5555--2~--2222--5~|
|----------3~--3333------------3~|
	                  ~~~~~(Vibrato)
The last power chord is a bend then a vibrato
I think! What do I know? You figure it out!

Intro Part 2?:
|---------------------------|  x3
|---------------------------|
|4444-----------------------|
|4444--44-2p0---5555--55-4p0|
|2222-----------5555--------|
|---------------3333--------|

|---------------------------|  x1
|---------------------------|
|4444----------4444--9/7-7/2|
|4444--44-2p0--4444--9/7-7/2|
|2222----------2222--7/5-5/4|
|---------------------------|

Verse:
This part is really hard to hear
|-----------------------------------------------------------------|  x3
|-----------------------------------------------------------------|
|4444----------------------------------7777-----------------------|
|4444---------------5555---------------7777--777p5-4-7777---------|
|2222--555-4h5p4p0--5555--555-4h5p4p0--5555----------7777--777p5-4|
|-------------------3333-----------------------------5555---------|

Chorus:
|--------------------------------------|  x1
|--------------------------------------|
|77777777------------44444444----------|
|77777777--77777777--44444444--55555555|
|55555555--77777777--22222222--55555555|
|----------55555555------------33333333|

One guitar is strumming another is doing the 44--2p0 part I think

Rap Part:
Lots of This
|----------------|
|----------------|
|----------------|
|4444------------|
|4444--rest--5555|
|2222--------5555|
|------------3333|

Thanks Brett!
            
Submit corrections

comments powered by Disqus
↑ Back to top | Off By One Tabs for Deja Vu. Lyrics for acoustic guitar and electric guitar. 1 Tablatures and chords are parodies/interpretations of the original songs. You may use it for private study, scholarship, research or language learning purposes only