» » »

Change Tabs (ver.1)

Artists:  A B C D E F G H I J K L M N O P Q R S T U V W X Y Z # 

Change Tabs (ver.1)

Off By One
Rating:
3/5 (2 votes)

Hard to play? Try these video lessons and learn fast.
                                ********************************************
                ***                                      ***
                ***             Off By One               ***
                ***               Change                 ***
                ***                                      ***
                ********************************************
         hey,this a very good song by off by one i tryed
my best it sounds 100% but you need two guitars for basically
this whole song so you can do a cover for it or somthin
if your in a band,well rate this tab its in standard tuning
and any comments or if u wanna tell me how good my tab is 
click the correct tab at the top of the page
Intro 
P.M.=====
e--------- 
b---3-1-0-
g-0-------
d--------- (x12)
a---------
E--------- 

Preverse(only for 1st verse in intro)hard to hear in song
e-------
b-------
g-------
d-5-5-4-
a-------
E-------

Verse
P.M.===================================================
e------------------------------------------------------
b------------------------------------------------------
g------------------------------------------------------
d-------------5-5-5-5-5-5-5-5---------------7-7-7-7-7-7
a-2-2-2-2-2-2-3-3-3-3-3-3-3-3-5-5-5-5-5-5-5-5-5-5-5-5-5
E-0-0-0-0-0-0-----------------3-3-3-3-3-3-3------------

After he says "I cannot change" the D7 chord isnt P.M.

Guitar 1(not P.M. now)
e------------------------------------------------------
b------------------------------------------------------
g------------------------------------------------------
d-------------5-5-5-5-5-5-5-5---------------7-7-7-7-7-7
a-2-2-2-2-2-2-3-3-3-3-3-3-3-3-5-5-5-5-5-5-5-5-5-5-5-5-5
E-0-0-0-0-0-0-----------------3-3-3-3-3-3-3------------

Guitar 2
e---------------------------------------------------------------
b---------------------------------------------------------------
g---------------------------------------------------------------
d-/5-5-5-5-4-4-4-4-4-5-5-5-5-5-4-4-4-4--5-5-5-5-4-4-4-4-7-7-7-7-
a---------------------------------------------------------------
E---------------------------------------------------------------

e---------------------------------------------------
b---------------------------------------------------
g---------------------------------------------------
d-5-5-5-5-4-4-4-4-5-5-5-5-4-4-4-4-5-5-5-5-5-4-4-4-4-
a---------------------------------------------------
E---------------------------------------------------

Chorus
Guitar 1
e---------------
b---------------
g---------------
d-5~----5~----7-
a-3~-5~-3~-5~-5-
E----3~----3~---

Guitar 2 played in between the powerchords of guitar 1
e-7--- (x8?)
b---8-
g-----
d-----
a-----
E-----

Preverse(only for 2nd verse)
Guitar 1(not P.M. now)
e------------------------------------------------------
b------------------------------------------------------
g------------------------------------------------------
d-------------5-5-5-5-5-5-5-5---------------7-7-7-7-7-7
a-2-2-2-2-2-2-3-3-3-3-3-3-3-3-5-5-5-5-5-5-5-5-5-5-5-5-5
E-0-0-0-0-0-0-----------------3-3-3-3-3-3-3------------

Guitar 2
e---------------------------------------------------------------
b---------------------------------------------------------------
g---------------------------------------------------------------
d-/5-5-5-5-4-4-4-4-4-5-5-5-5-5-4-4-4-4--5-5-5-5-4-4-4-4-7-7-7-7-
a---------------------------------------------------------------
E---------------------------------------------------------------

e---------------------------------------------------
b---------------------------------------------------
g---------------------------------------------------
d-5-5-5-5-4-4-4-4-5-5-5-5-4-4-4-4-5-5-5-5-5-4-4-4-4-
a---------------------------------------------------
E---------------------------------------------------

Verse 2
Guitar 1
P.M.===================================================
e------------------------------------------------------
b------------------------------------------------------
g------------------------------------------------------
d-------------5-5-5-5-5-5-5-5---------------7-7-7-7-7-7
a-2-2-2-2-2-2-3-3-3-3-3-3-3-3-5-5-5-5-5-5-5-5-5-5-5-5-5
E-0-0-0-0-0-0-----------------3-3-3-3-3-3-3------------

Guitar 2
e--------------------------------------------------------
b--------------------------------------------------------
g-------------------7-5-4-5------------------------------
d-5-4-5-5-4-5-5-4-5---------5-4-5-5-4-5-5-5-5-5-4-4-4-4-4
a--------------------------------------------------------
E--------------------------------------------------------

Prechorus(for 2nd Chorus)
Guitar 1(not P.M. now)
e------------------------------------------------------
b------------------------------------------------------
g------------------------------------------------------
d-------------5-5-5-5-5-5-5-5---------------7-7-7-7-7-7
a-2-2-2-2-2-2-3-3-3-3-3-3-3-3-5-5-5-5-5-5-5-5-5-5-5-5-5
E-0-0-0-0-0-0-----------------3-3-3-3-3-3-3------------

Guitar 2
e---------------------------------------------------------------
b---------------------------------------------------------------
g---------------------------------------------------------------
d-/5-5-5-5-4-4-4-4-4-5-5-5-5-5-4-4-4-4--5-5-5-5-4-4-4-4-7-7-7-7-
a---------------------------------------------------------------
E---------------------------------------------------------------

e---------------------------------------------------
b---------------------------------------------------
g---------------------------------------------------
d-5-5-5-5-4-4-4-4-5-5-5-5-4-4-4-4-5-5-5-5-5-4-4-4-4-
a---------------------------------------------------
E---------------------------------------------------

Chorus 2(same as chorus 1)
Guitar 1
e---------------
b---------------
g---------------
d-5~----5~----7-
a-3~-5~-3~-5~-5-
E----3~----3~---

Guitar 2 played in between the powerchords of guitar 1
e-7--- (x8?)
b---8-
g-----
d-----
a-----
E-----

then this riff is played before breakdown
Guitar 1(not P.M. now)
e------------------------------------------------------
b------------------------------------------------------
g------------------------------------------------------
d-------------5-5-5-5-5-5-5-5---------------7-7-7-7-7-7
a-2-2-2-2-2-2-3-3-3-3-3-3-3-3-5-5-5-5-5-5-5-5-5-5-5-5-5
E-0-0-0-0-0-0-----------------3-3-3-3-3-3-3------------

Guitar 2
e---------------------------------------------------------------
b---------------------------------------------------------------
g---------------------------------------------------------------
d-/5-5-5-5-4-4-4-4-4-5-5-5-5-5-4-4-4-4--5-5-5-5-4-4-4-4-7-7-7-7-
a---------------------------------------------------------------
E---------------------------------------------------------------

e---------------------------------------------------
b---------------------------------------------------
g---------------------------------------------------
d-5-5-5-5-4-4-4-4-5-5-5-5-4-4-4-4-5-5-5-5-5-4-4-4-4-
a---------------------------------------------------
E---------------------------------------------------

Breakdown         
Guitar 1   after times play this- P.M              ===========
e------------------------      e------------------------------
b------------------------ (x4) b------------------------------
g------------------------      g------------------------------
d-----5-5-5-5-----5-7-7-4      d-5-5-5-5-5-5-5-5-4-4-4-4-4-4-4
a-2-2---3-3---5-5---5-5--      a-3-3-3-3-3-3-3-3-2-2-2-2-2-2-2
E-0-0---------3-3--------      E------------------------------

Guitar 2 plays this while guitar plays whats above(figure out 
e-7h8p7-10h12p10-7h8p7-10h12-10b(bend up high)      when this is
b-------------------------------                   played during
g-------------------------------                       breakdown)
d-------------------------------
a-------------------------------
E-------------------------------

After Breakdown
Guitar 1
e------------------------------------------------------
b------------------------------------------------------
g------------------------------------------------------
d-------------5-5-5-5-5-5-5-5---------------7-7-7-7-7-7
a-2-2-2-2-2-2-3-3-3-3-3-3-3-3-5-5-5-5-5-5-5-5-5-5-5-5-5
E-0-0-0-0-0-0-----------------3-3-3-3-3-3-3------------

Guitar 2
e------------------------------------------------------
b------------------------------------------------------
g------------------------------------------------------
d-5-5-5-5-5-5-4-5-5-5-5-5-7-7-7-5-5-5-4-5-5-5-4-4-4-4-4
a------------------------------------------------------
e------------------------------------------------------

Chorus 3
Guitar 1
e-------------
b-------------
g------------- After this guitar 2 comes in
d-5~----5~---- but guitar 1 is still playing
a-3~-5~-3~-5~- this but VERY lightly and hard
E----3~----3~- to hear

e--------------- <-While guitar 2 plays
b---------------   the C and the G chords
g---------------    are played LIGHTLY
d-5~----5~----7-     then the D7 is played
a-3~-5~-3~-5~-5-      regularly.
E----3~----3~---

Guitar 2
e-7-7---7h8p7-7--7--7---7h8p7-7---7---7---7---
b-----8---------8--8--8---------8---8---8---8-
g---------------------------------------------
d---------------------------------------------
a---------------------------------------------
E---------------------------------------------

After Chorus 3
Guitar 1(not P.M. now)
e------------------------------------------------------
b------------------------------------------------------
g------------------------------------------------------
d-------------5-5-5-5-5-5-5-5---------------7-7-7-7-7-7
a-2-2-2-2-2-2-3-3-3-3-3-3-3-3-5-5-5-5-5-5-5-5-5-5-5-5-5
E-0-0-0-0-0-0-----------------3-3-3-3-3-3-3------------

Guitar 2
e---------------------------------------------------------------
b---------------------------------------------------------------
g---------------------------------------------------------------
d-/5-5-5-5-4-4-4-4-4-5-5-5-5-5-4-4-4-4--5-5-5-5-4-4-4-4-7-7-7-7-
a---------------------------------------------------------------
E---------------------------------------------------------------

e---------------------------------------------------
b---------------------------------------------------
g---------------------------------------------------
d-5-5-5-5-4-4-4-4-5-5-5-5-4-4-4-4-5-5-5-5-5-4-4-4-4-
a---------------------------------------------------
E---------------------------------------------------

Right before the ending it plays this-
Guitar 1
e--------------------
b--------------------
g--------------------
d------5-5------7-7--
a-2-2--3-3--5-5-5-5--
E-0-0-------3-3------  

Guitar 2 
e-7-8-7b(little bend)-7-8-10b(LITTLE bend)-
b-8-8-8b--------------8-8--8b-------------- make sure you bend
g------------------------------------------ both strings on the bend!
d------------------------------------------
a------------------------------------------
E------------------------------------------

Ending
e---------------
b---------------
g---------------
d-10-9-7-5-4-4--
a-8--7-5-3-2-2-7
E--------------5

Well thats it rate this tab and tell me how good this tab is
on the corect tab button on the top,l8r
            
Hard to play? Try these video lessons and learn fast. | Correct




comments powered by Disqus
↑ Back to top | Tablatures and chords are parodies/interpretations of the original songs. You may use it for private study, scholarship, research or language learning purposes only