» » »

Off By One, Been Alone Bass tabs (ver.1)

Artists:  A B C D E F G H I J K L M N O P Q R S T U V W X Y Z # 

Been Alone Bass tabs (ver.1)

Off By One Tabs
Rating:
0/5 (0 votes)
Been Alone  lessons Tabs too difficult? Try these video lessons and learn fast
                (1)
Albunm:Off By One



Intro
G:----------------------------------|
D:-2222------------2222--------5555-|
A:-----22223333--------22223333-----|x4
E:-------------3333-----------------|

Verse 1
G:----------------------------------|
D:-2222------------2222--------5555-|
A:-----22223333--------22223333-----|x4
E:-------------3333-----------------|

Pre Chorus
G:----------------------------------|
D:-2222------------2222-------------|
A:-----222233----------222233-------|x2
E:----------------------------------|

Chorus
G:----------------------------------|
D:----------------------------------|
A:-77777777-3333333---------5555555-|x4
E:-----------------33333333---------|

Verse 2
G:----------------------------------|
D:-2222------------2222--------5555-|
A:-----22223333--------22223333-----|x5
E:-------------3333-----------------|

Repeat:
Pre Chorus
Chorus

Bridge
G:----------------------------------|
D:----------------------------------|
A:-7~~~-----------------------------|x2
E:----------------------------------|

G:----------------------------------|  |----------------------------------|
D:----------------------------------|  |----------------------------------|
A:-7-7-7-7---------5-5-5-5-5-5-5-5--|x3|-7-7-7-7---------5-5-5-5-5--------|x1
E:---------3-3-3-3------------------|  |---------3-3-3-3------------------|

G:----------------------------------|
D:----------------------------------|
A:-77777777-3333333---------5555555-|x2
E:-----------------33333333---------|

G:----------------------------------|
D:----------------------------------|
A:----------------------------------|x2
E:----------------------------------|

Chorus
G:----------------------------------|
D:----------------------------------|
A:-77777777-3333333---------5555555-|x4
E:-----------------33333333---------|

G:----------------------------------|
D:----------------------------------|
A:-7~~~-----------------------------|x1
E:----------------------------------|
            

comments powered by Disqus
↑ Back to top | Off By One Bass for Been Alone. Lyrics for acoustic guitar and electric guitar. Tablatures and chords are parodies/interpretations of the original songs. You may use it for private study, scholarship, research or language learning purposes only