» » »

Of A Revolution, So Moved On Tabs (ver.1)

Artists:  A B C D E F G H I J K L M N O P Q R S T U V W X Y Z # 

So Moved On Tabs (ver.1)

Of A Revolution Tabs
 Rating:
4/5 (4 votes)
So Moved On lessons Tabs too difficult? Try these video lessons and learn fast
1
                This is in the Key of A Major

---------0-----------------0------------------2-----------------2-------------
-------2---2-------------0---0--------------3---3-------------3---3-----------
-----2-------2---------1-------1----------4-------4---------2-------2---------
---2-----------2-----2-----------2------4-----------4-----0-----------0-------
-0-----------------2------------------2-----------------0---------------------
 Intro and Verse:       Play threw out                                        

---------------------------------0----0----4----2-----------------------------
---------------------------------2----0----4----3-----------------------------
---------------------------------2----1----4----2-----------------------------
---------------------------------2----2----4----0-----------------------------
---------------------------------0----2----2----0-----------------------------
---------------------------------0----0---------0-----------------------------
 Play after the Drums kick in:   A    E    Bm   D        Strum these          

-0---0---2-----------0---0----------------------------------------------------
-2---0---3-----------2---0----------------------------------------------------
-2---1---2-----------2---1----------------------------------------------------
-2---2---0-----------2---2----------------------------------------------------
-0---2---0-----------0---2----------------------------------------------------
-0---0---0-----------0---0----------------------------------------------------
 After Verse but before Chorus: " Well Im threw the night"                    

-0----0---------2-------------------------------------------------------------
-2----0----4----3-------------------------------------------------------------
-2----1----4----2-------------------------------------------------------------
-2----2----4----0-------------------------------------------------------------
-0----2----2----0-------------------------------------------------------------
-0----0---------0-------------------------------------------------------------
 Chorus: Starts with  " My Drinkin "    Strum chords
            
Submit corrections

comments powered by Disqus
↑ Back to top | Of A Revolution Tabs for So Moved On. Lyrics for acoustic guitar and electric guitar. 1 Tablatures and chords are parodies/interpretations of the original songs. You may use it for private study, scholarship, research or language learning purposes only