» » »

Of A Revolution, City On Down Tabs (ver.1)

Artists:  A B C D E F G H I J K L M N O P Q R S T U V W X Y Z # 

City On Down Tabs (ver.1)

Of A Revolution Tabs
 Rating:
4/5 (4 votes)
City On Down lessons Tabs too difficult? Try these video lessons and learn fast
                This is in the key of C major

-----------------------------------0-----3----0----0--------------------------
-----------------------------------1-----3----1----1--------------------------
-----------------------------------0-----0----2----2--------------------------
-----------------------------------2-----0----2----3--------------------------
-----------------------------------3-----2----0----0--------------------------
-----------------------------------0-----3----0----0--------------------------
 Intro:  Strum theses chords       C     G   Am   F                           

-0------3------0-----0--------------------------------------------------------
-1------3------1-----1--------------------------------------------------------
-0------0------2-----2--------------------------------------------------------
-2------0------2-----3--------------------------------------------------------
-3------2------0-----0--------------------------------------------------------
-0------3------0-----0--------------------------------------------------------
 Drums kick in play same chords just little slower
            
Submit corrections

comments powered by Disqus
↑ Back to top | Of A Revolution Tabs for City On Down. Lyrics for acoustic guitar and electric guitar. Tablatures and chords are parodies/interpretations of the original songs. You may use it for private study, scholarship, research or language learning purposes only