» » »

Odd Project, The Wanderer Tabs (ver.1)

Artists:  A B C D E F G H I J K L M N O P Q R S T U V W X Y Z # 

The Wanderer Tabs (ver.1)

Odd Project Tabs
Rating:
5/5 (1 vote)
The Wanderer lessons Tabs too difficult? Try these video lessons and learn fast
                -------------------------------------------------------------------------------
-------------------------------------------------------------------------------



Visit my blog for more Odd Project tabs.


Tuning: Standard E OR Drop D (6th string not used)

e|----------------------------------------------------|
B|---5-4-----5-4-----5-4---------5---5-4--------5-4---|
G|-----------------------------6---------6----------6-|
D|-------6-------6-------6---6------------------------|
A|-4-------4-------4-------4-------0----------0-------|
E|----------------------------------------------------|


Guitar 1:
e|----------------------------------------------------|
B|---5-4-----5-4-----5-4---------5---5-4--------5-4---|
G|-----------------------------6---------6----------6-|
D|-------6-------6-------6---6------------------------|
A|-4-------4-------4-------4-------0----------0-------|
E|----------------------------------------------------|

Guitar 2:
e|---4-2-0---4-2-0---4-2-0---4-2-0---5-4-0-----/5-4-0-|
B|----------------------------------------------------|
G|----------------------------------------------------|
D|----------------------------------------------------|
A|----------------------------------------------------|
E|----------------------------------------------------|


e|-----------------------------------------------------------------------|
B|-----------------------------------------------------------------------|
G|-----------13----11-9--8----8----6-8-8-8/9-6--6/8-9--11--11/13-11--9-9-|
D|-----11-----------------------9----------------------------------------|
A|-/11----11----11----------9--------------------------------------------|
E|-----------------------------------------------------------------------|

e|--------------------------------------------------------------------|
B|-----------------------------------------------------12-14-16-16/17-|
G|-/9-11----11--11/13-------------------------11-13-14----------------|
D|-------9------------11-------------11-13-14-------------------------|
A|--------------------------11-12-14----------------------------------|
E|--------------------------------------------------------------------|

e|-------------------------------------------------|
B|---------------------------------------------5-7-|
G|-----13----14-13-13----13-11--9-9-9/11-8-----6-8-|
D|-/11----11----------14---------------------------|
A|-------------------------------------------------|
E|-------------------------------------------------|

e|---------------------------------------------------------|
B|---------------------7-----------------------------------|
G|----6----8-----8-----------9-----8---8h9--8h9p8\6-8----9-|
D|-/6----6----6-----6-----6------6---6---------------------|
A|---------------------------------------------------------|
E|---------------------------------------------------------|

e|------|
B|-5----|
G|--6---|
D|---6--| 
A|----4-|
E|------|



| /  slide up
| \  slide down
| h  hammer-on
| p  pull-off
| ~  vibrato
| +  harmonic
| x  Mute note
===============================================================================
            
Submit corrections

comments powered by Disqus
↑ Back to top | Odd Project Tabs for The Wanderer. Lyrics for acoustic guitar and electric guitar. Tablatures and chords are parodies/interpretations of the original songs. You may use it for private study, scholarship, research or language learning purposes only