>
 >
The Phone Is Such A Blunt Object

The Phone Is Such A Blunt Object Guitar Tabs

Odd Project - The Phone Is Such A Blunt Object chords, tabs, tablatures, lyrics

Guitar lessons | Add/correct | Request | Top 50 tabs Artists:  A B C D E F G H I J K L M N O P Q R S T U V W X Y Z 0-9

The Phone Is Such A Blunt Object Guitar Tabs – Odd Project

CD, Sheet music, Poster

Do you like The Phone Is Such A Blunt Object? Share with your friends now
Tabs
Tunning: Dropped D (DADGBE)

I tabbed this song on my acoustic, but I think I did pretty well. Check out Odd Project 

PART 1
Guitar 1
|----------|
|----------|
|----------|
|--0~-x-x--|
|--0~-x-x--|
|--0~-x-x--|
Guitar 2
|----------|
|----------|
|----------|
|--7~-x-x--|
|-----x-x--|
|-----x-x--|

PART 2
Guitar 1
|-----------------------------------------------------------------------|
|-----------------------------------------------------------------------|
|-----------------------------------------------------------------------|
|--0-0-8-x-x-x-x-8-x-x-x-x-8-x-x-x-x-5-5-5-5-5-5-5-5-1-1-1-1-1-1--1--1--|
|--0-0-8-x-x-x-x-8-x-x-x-x-8-x-x-x-x-5-5-5-5-5-5-5-5-1-1-1-1-1-1--1--1--|
|--0-0-8-x-x-x-x-8-x-x-x-x-8-x-x-x-x-5-5-5-5-5-5-5-5-1-1-1-1-1-1--1--1--|x2
Guitar 2
|--------------------------------------------------------------------------|
|-----------------------------------------------------8-----------8--------|
|----------------------------7-----------10--------------------------------|
|--7-8-7---8-7---8-7---0-7-8---8-7-0-7-8----8-7-0-7-8---8-7-0-7-8---8-7\3--|
|--------8-----8-----8-----------------------------------------------------|
|--------------------------------------------------------------------------|x2 Only 
down to the 3 the last time you play this.

PART 3
Guitar 1
|--------------------------------------------------------------|
|--------------------------------------------------------------|
|--------------------------------------------------------------|
|-----------------------------------------------0-0----0-0-----|
|--0-8-7-10-7-8-7-0-8-7-10-7-8-7-0-8-7-10-7-8-7-0-0----0-0-----|
|--0-8-7-10-7-8-7-0-8-7-10-7-8-7-0-8-7-10-7-8-7-0-0-h8-0-0-h8--|x2
Guitar 2
|----------------------------------------------------|
|----------------------------------------------------|
|--9--7-7-7-7-7-9--7-7-7-7-7-9--7-7-7-7-7-9-9-15-15--|
|--0--0-0-0-0-0-0--0-0-0-0-0-0--0-0-0-0-0-0-0-0--0---|
|--7--5-5-5-5-5-7--5-5-5-5-5-7--5-5-5-5-5-7-7-13-13--|
|----------------------------------------------------|x2

PART 4
Guitar 1 x2
|--------------------------------------------|
|--------------------------------------------|
|--------------------------------------------|
|--0-0-x-x-x-8-0-0-0--0-0-0-3-3-3-3-2-2-2-2--|
|--0-0-x-x-x-8-0-0-0--0-0-0-3-3-3-3-2-2-2-2--|
|--0-0-x-x-x-8-0-0-0--0-0-0-3-3-3-3-2-2-2-2--|
               . . .  . . .
|---------------------------------------------------------------------------|
|---------------------------------------------------------------------------|
|---------------------------------------------------------------------------|
|--0-0-0-0-0-0-0-0-10-10-10-10-10-10-10-10-8-8-8-8-8-8-8-8-3-3-3-3-3-3-3-3--|
|--0-0-0-0-0-0-0-0-10-10-10-10-10-10-10-10-8-8-8-8-8-8-8-8-3-3-3-3-3-3-3-3--|
|--0-0-0-0-0-0-0-0-10-10-10-10-10-10-10-10-8-8-8-8-8-8-8-8-3-3-3-3-3-3-3-3--|
Guitar 2 x2
|------------------------------------------|
|------------------------------------------|
|--------10-------14-14-14-14-12-12-12-12--|
|--x-x-x-x--x-x-x-x--x--x--x--x--x--x--x---|
|--x-x-x-8--x-x-x-12-12-12-12-10-10-10-10--|
|--x-x-x----x-x-x--------------------------|

|-------------------------------------------------------------------------------------------|
|-------------------------------------------------------------------------------------------|
|--10-10-10-10-10-10-10-10-9-9-9-9-9-9-9-9-10-10-10-10-10-10-10-10-10-10-10-10-10-10-10-10--|
|--x--x--x--x--x--x--x--x--x-x-x-x-x-x-x-x-x--x--x--x--x--x--x--x--x--x--x--x--x--x--x--x---|
|--8--8--8--8--8--8--8--8--7-7-7-7-7-7-7-7-8--8--8--8--8--8--8--8--8--8--8--8--8--8--8--8---|
|-------------------------------------------------------------------------------------------|


PART 5
Guitar 1
|---------------|
|---------------|
|--9-6-7-9-6----|
|--x---------7--|
|--7------------|
|---------------|

Guitar 2
|---------------|
|----5-6-8-5----|
|------------5--|
|--7------------|
|--7------------|
|--7------------|

PART 6
Guitar 1
|-------------------------------------|
|-------------------------------------|
|----------------------5--------------|
|--0-2-3-3h5p3-2h3p2p0-5-3-2-0h2p0----|
|--0-2-3---------------3-3-2-------3--|
|--0-2-3-----------------3-2----------|x4
Guitar 2
|-------------------------------------|
|-------------------------------------|
|----------------------5--------------|
|--0-2-3-7h8p7-5h7p5\3-5-3-2----------|
|--0-2-3---------------3-3-2-1h3p1-0--|
|--0-2-3-----------------3-2----------|x4 The second time you play this you just let the 
ring out in place of the 1h3p1-0.

PART 7
Guitar 1
|-----------------------------------------------------------------------|
|-----------------------------------------------------------------------|
|-----------------------------------------------------------------------|
|--0-0-8-x-x-x-x-8-x-x-x-x-8-x-x-x-x-5-5-5-5-5-5-5-5-1-1-1-1-1-1--1--1--|
|--0-0-8-x-x-x-x-8-x-x-x-x-8-x-x-x-x-5-5-5-5-5-5-5-5-1-1-1-1-1-1--1--1--|
|--0-0-8-x-x-x-x-8-x-x-x-x-8-x-x-x-x-5-5-5-5-5-5-5-5-1-1-1-1-1-1--1--1--|

|------------------------------------------------------------------------------------------------|
|------------------------------------------------------------------------------------------------|
|------------------------------------------------------------------------------------------------|
|--0-0-8-x-x-x-x-8-x-x-x-x-8-x-x-x-x-5-5-5-5-5-5-5-5-1-1-1-1-1-1--1--1--1-1--1--1--1-1--1--1--1--|
|--0-0-8-x-x-x-x-8-x-x-x-x-8-x-x-x-x-5-5-5-5-5-5-5-5-1-1-1-1-1-1--1--1--1-1--1--1--1-1--1--1--1--|
|--0-0-8-x-x-x-x-8-x-x-x-x-8-x-x-x-x-5-5-5-5-5-5-5-5-1-1-1-1-1-1--1--1--1-1--1--1--1-1--1--1--1--|
Guitar 2
|------------------------------------------------------------------------|
|-----------------------------------------------------8-----------8------|
|----------------------------7-----------10------------------------------|
|--7-8-7---8-7---8-7---0-7-8---8-7-0-7-8----8-7-0-7-8---8-7-0-7-8---8-7--|
|--------8-----8-----8---------------------------------------------------|
|------------------------------------------------------------------------|

|------------------------------------------------------------------------------------------------|
|-----------------------------------------------------8-----------8-----------8-----------8------|
|----------------------------7-----------10------------------------------------------------------|
|--7-8-7---8-7---8-7---0-7-8---8-7-0-7-8----8-7-0-7-8---8-7-0-7-8---8-7-0-7-8---8-7-0-7-8---8-7--|
|--------8-----8-----8---------------------------------------------------------------------------|
|------------------------------------------------------------------------------------------------|


PART 8
Guitar 1
|---------------------------------------------------------------------------|
|---------------------------------------------------------------------------|
|-----------------------7-7-7-7-7-7-----------------------------------------|
|--0--11--0--11--0--11--x-x-x-x-x-x-0--11--0--11--0--11--12-12-12-12-12-12--|
|--0--11--0--11--0--11--5-5-5-5-5-5-0--11--0--11--0--11--12-12-12-12-12-12--|
|--0--11--0--11--0--11--------------0--11--0--11--0--11--12-12-12-12-12-12--|
Guitar 2
|-----------------------|
|-----8-----8-----8-----|
|-----9-----9-----9-----|
|--0--11-0--11-0--11-0--|
|--0-----0-----0-----0--|
|--0-----0-----0-----0--|x2

PART 9
Guitar 1
|------------------------------------------------------------------|
|------------------------------------------------------------------|
|-----------------------------------------------------7-7-7-7-7-7--|
|--0-0-0-0-11-11-11-0-0-0-0-11-11-11-0-0-0-0-11-11-11-x-x-x-x-x-x--|
|--0-0-0-0-11-11-11-0-0-0-0-11-11-11-0-0-0-0-11-11-11-5-5-5-5-5-5--|
|--0-0-0-0-11-11-11-0-0-0-0-11-11-11-0-0-0-0-11-11-11--------------|x2
Guitar 2
|--------------------------------------------------|
|----------8--------------8--------------8---------|
|------------9--------------9--------------9-------|
|--0-0-0-0-----11-0-0-0-0-----11-0-0-0-0-----11-7--|
|--0-0-0-0--------0-0-0-0--------0-0-0-0-----------|
|--0-0-0-0--------0-0-0-0--------0-0-0-0-----------|

|--------------------------------------------------|
|----------8--------------8--------------8---------|
|------------9--------------9--------------9-------|
|--0-0-0-0-----11-0-0-0-0-----11-0-0-0-0-----11----|
|--0-0-0-0--------0-0-0-0--------0-0-0-0--------5--|
|--0-0-0-0--------0-0-0-0--------0-0-0-0-----------|

PART 10
Guitar 1
|----------------------------------------------------|
|----------------------------------------------------|
|--9--7-7-7-7-7-9--7-7-7-7-7-9--7-7-7-7-7-9-9-15-15--|
|--0--0-0-0-0-0-0--0-0-0-0-0-0--0-0-0-0-0-0-0-0--0---|
|--7--5-5-5-5-5-7--5-5-5-5-5-7--5-5-5-5-5-7-7-13-13--|
|----------------------------------------------------|x3

|------------------------------------------------------|
|------------------------------------------------------|
|--9--7-7-7-7-7-9--7-7-7-7-7-9--7-7-7-7-7--------------|
|--0--0-0-0-0-0-0--0-0-0-0-0-0--0-0-0-0-0-12-12-12-12--|
|--7--5-5-5-5-5-7--5-5-5-5-5-7--5-5-5-5-5-12-12-12-12--|
|-----------------------------------------12-12-12-12--|
Guitar 2
|----------------------------------------------------------------------------|
|----------------------------------------------------------------------------|
|--9--10-10-10-10-10-10-9--12-12-12-12-12-12-9--10-10-10-10-10-10-9-9-15-15--|
|--x--x--x--x--x--x--x--x--x--x--x--x--x--x--x--x--x--x--x--x--x--x-x-x--x---|
|--7--8--8--8--8--8--8--7--10-10-10-10-10-10-7--8--8--8--8--8--8--7-7-13-13--|
|----------------------------------------------------------------------------|x3

|------------------------------------------------------------------------------|
|------------------------------------------------------------------------------|
|--9--10-10-10-10-10-10-9--12-12-12-12-12-12-9--10-10-10-10-10-10--------------|
|--x--x--x--x--x--x--x--x--x--x--x--x--x--x--x--x--x--x--x--x--x--12-12-12-12--|
|--7--8--8--8--8--8--8--7--10-10-10-10-10-10-7--8--8--8--8--8--8--12-12-12-12--|
|-----------------------------------------------------------------12-12-12-12--|

PART 11
Guitar 1 & Guitar 2
|--------------------------------------------------------|
|--------------------------------------------------------|
|-------------------------------------------------*---*--|
|-----------------------------------------------0---0----|
|--0-8-7-10-7-8-7-0-8-7-10-7-8-7-0-8-7-10-7-8-7-0---0----|
|--0-8-7-10-7-8-7-0-8-7-10-7-8-7-0-8-7-10-7-8-7-0---0----|x2 Those *'s are some sort of 
harmonics that I can't figure out because I'm tabbing this on acoustic.

PART 12
Guitar 1 x2
|--------------------------------------------|
|--------------------------------------------|
|--------------------------------------------|
|--0-0-x-x-x-8-0-0-0--0-0-0-3-3-3-3-2-2-2-2--|
|--0-0-x-x-x-8-0-0-0--0-0-0-3-3-3-3-2-2-2-2--|
|--0-0-x-x-x-8-0-0-0--0-0-0-3-3-3-3-2-2-2-2--|
               . . .  . . .
|---------------------------------------------------------------------------|
|---------------------------------------------------------------------------|
|---------------------------------------------------------------------------|
|--0-0-0-0-0-0-0-0-10-10-10-10-10-10-10-10-8-8-8-8-8-8-8-8-3-3-3-3-3-3-3-3--|
|--0-0-0-0-0-0-0-0-10-10-10-10-10-10-10-10-8-8-8-8-8-8-8-8-3-3-3-3-3-3-3-3--|
|--0-0-0-0-0-0-0-0-10-10-10-10-10-10-10-10-8-8-8-8-8-8-8-8-3-3-3-3-3-3-3-3--|
Guitar 2 x2
|------------------------------------------|
|------------------------------------------|
|--------10-------14-14-14-14-12-12-12-12--|
|--x-x-x-x--x-x-x-x--x--x--x--x--x--x--x---|
|--x-x-x-8--x-x-x-12-12-12-12-10-10-10-10--|
|--x-x-x----x-x-x--------------------------|

|-------------------------------------------------------------------------------------------|
|-------------------------------------------------------------------------------------------|
|--10-10-10-10-10-10-10-10-9-9-9-9-9-9-9-9-10-10-10-10-10-10-10-10-10-10-10-10-10-10-10-10--|
|--x--x--x--x--x--x--x--x--x-x-x-x-x-x-x-x-x--x--x--x--x--x--x--x--x--x--x--x--x--x--x--x---|
|--8--8--8--8--8--8--8--8--7-7-7-7-7-7-7-7-8--8--8--8--8--8--8--8--8--8--8--8--8--8--8--8---|
|-------------------------------------------------------------------------------------------|

PART 12 CONTINUED
Guitar 1
|---------------------------------------------------------------------------|
|---------------------------------------------------------------------------|
|---------------------------------------------------------------------------|
|--0-0-0-0-0-0-0-0-10-10-10-10-10-10-10-10-8-8-8-8-8-8-8-8-3-3-3-3-3-3-3-3--|
|--0-0-0-0-0-0-0-0-10-10-10-10-10-10-10-10-8-8-8-8-8-8-8-8-3-3-3-3-3-3-3-3--|
|--0-0-0-0-0-0-0-0-10-10-10-10-10-10-10-10-8-8-8-8-8-8-8-8-3-3-3-3-3-3-3-3--|x2

Guitar 2
|-------------------------------------------------------------------------------------------|
|-------------------------------------------------------------------------------------------|
|--10-10-10-10-10-10-10-10-9-9-9-9-9-9-9-9-10-10-10-10-10-10-10-10-10-10-10-10-10-10-10-10--|
|--x--x--x--x--x--x--x--x--x-x-x-x-x-x-x-x-x--x--x--x--x--x--x--x--x--x--x--x--x--x--x--x---|
|--8--8--8--8--8--8--8--8--7-7-7-7-7-7-7-7-8--8--8--8--8--8--8--8--8--8--8--8--8--8--8--8---|
|-------------------------------------------------------------------------------------------|

|---------------------------------------------------------------------------------------------------|
|---------------------------------------------------------------------------------------------------|
|--14-14-14-14-14-14-14-14-12-12-12-12-12-12-12-12-10-10-10-10-10-10-10-10-10-10-10-10-10-10-10-10--|
|--x--x--x--x--x--x--x--x--x--x--x--x--x--x--x--x--x--x--x--x--x--x--x--x--x--x--x--x--x--x--x--x---|
|--12-12-12-12-12-12-12-12-10-10-10-10-10-10-10-10-8--8--8--8--8--8--8--8--8--8--8--8--8--8--8--8---|
|---------------------------------------------------------------------------------------------------|

PART 13
Guitar 1 & Guitar 2
|----------------------------------------------|
|----------------------------------------------|
|----------------------------------------------|
|--1--1-1--1-1--1--1-1--1-1-1--1--1-1--1-1--1--|
|--1--1-1--1-1--1--1-1--1-1-1--1--1-1--1-1--1--|
|--1--1-1--1-1--1--1-1--1-1-1--1--1-1--1-1--1--|





Comments


Popular Odd Project tabs & chords
A Hero's Trial Tabs
A Perfect Smile And Broken Wings Tabs
Electro Defy Me Tabs
Fashion Police Hate Robots Tabs
Midnight Lullaby Tabs
Silver Screen Lovers Tabs
Silver Screen Lovers Intro Tabs
The Wanderer Tabs


Song lyrics



↑ Back to top | Tablatures and chords are parodies/interpretations of the original songs. You may use it for private study, scholarship, research or language learning purposes only
© 2014 AZChords.com Contact us | Privacy policy | DMCA | Add/correct tabs | Request tabs | Top 50 tabs