>
 >
Silver Screen Lovers

Silver Screen Lovers Guitar Tabs

Odd Project - Silver Screen Lovers chords, tabs, tablatures, lyrics

Guitar lessons | Add/correct | Request | Top 50 tabs Artists:  A B C D E F G H I J K L M N O P Q R S T U V W X Y Z 0-9

Silver Screen Lovers Guitar Tabs – Odd Project

CD, Sheet music, Poster

Do you like Silver Screen Lovers? Share with your friends now
Tabs
RIFF 1  PLAY TWICE
e -------------------------------------------------9---------11--------|
b -------------------9-11-12-11-0-11-12-11-0-11-12---12-11-9-----------|
g -9-9-9-9-8-8-8-8-8---------------------------------------------------|
d -x-x-x-x-x-x-x-x-x---------------------------------------------------|
a -7-7-7-7-6-6-6-6-6---------------------------------------------------|
d ---------------------------------------------------------------------|

e --------------------------------14---------14---------14-12-11----11-|
b ------------------------9-11-12----0-11-12----0-11-12----------12----|
g -9-9-9-9-11-11-11-11-11----------------------------------------------|
d -x-x-x-x-x--x--x--x--x-----------------------------------------------|
a -7-7-7-7-9--9--9--9--9-----------------------------------------------|
d ---------------------------------------------------------------------|


FILLER 1  PLAY ONCE
e ---------------------------------------------------------------------|
b ---------------------------------------------------------------------|
g ---------------------------------------------------------------------|
d ---------------------------------------------------------------------|
a -6-6-6666-6-6-666-6--------------------------------------------------|
d -6-6-6666-6-6-666-6--------------------------------------------------|
       ....     ...


CHORUS (each measure = 4 counts)  PLAY ONCE
  |1x2x3x4x|1x2x3x4x|1x2x3x4x|1x2x3x4x|1x2x3x4x|1x2x3x4x|1x2x3x4x|-----|
e |--------|--------|--------|--------|--------|--------|--------|-----|
b |7-7-7--9|5-5-4---|9--9--9-|7-------|5---4---|--------|--------|-----|
g |6-6-6--8|4-4-3---|8--8--8-|6-------|4---3---|--------|--------|-----|
d |4-4-4--6|2-2-1---|6--6--6-|4-------|2---1---|--------|--------|-----|
a |4-4-4--6|2-2-1---|6--6--6-|4-------|2---1---|--------|--------|-----|
d |4-4-4--6|2-2-1---|6--6--6-|4-------|2---1---|--------|--------|-----|


FILLER 2  PLAY ONCE
e ----------------------------------------|----------------------|-----|
b 12p0-11p0-14p0-12p0-11p0-9p0-7p0-11p0-:|-11/12-(hold 4 beats)-|-----|
g ----------------------------------------|----------------------|-----|
d ----------------------------------------|----------------------|-----|
a ---------------------------------------:|----------------------|-----|
d ----------------------------------------|----------------------|-----|


CHORUS (each measure = 4 counts)  PLAY ONCE
  |1x2x3x4x|1x2x3x4x|1x2x3x4x|1x2x3x4x|1x2x3x4x|1x2x3x4x|1x2x3x4x|-----|
e |--------|--------|--------|--------|--------|--------|--------|-----|
b |--------|--------|--------|--------|--------|--------|--------|-----|
g |--------|--------|--------|--------|--------|--------|--------|-----|
d |2---1---|6--6--66|2---1---|6---6---|9---11--|6---6---|4---4---|-----|
a |2---1---|6--6--66|2---1---|6---6---|9---11--|6---6---|4---4---|-----|
d |2---1---|6--6--66|2---1---|6---6---|9---11--|6---6---|4---4---|-----|


  |1x2x3x4x|-----------------------------------------------------------|
e |--------|-----------------------------------------------------------|
b |--------|-----------------------------------------------------------|
g |--------|-----------------------------------------------------------|
d |2---1---|-----------------------------------------------------------|
a |2---1---|-----------------------------------------------------------|
d |2---1---|-----------------------------------------------------------|


RIFF 1  PLAY ONCE
e -------------------------------------------------------9---------11--|
b -------------------------9-11-12-11-0-11-12-11-0-11-12---12-11-9-----|
g -9---9-9-8-8-8-8-8-8-8-8---------------------------------------------|
d -x---x-x-x-x-x-x-x-x-x-x---------------------------------------------|
a -7---7-7-6-6-6-6-6-6-6-6---------------------------------------------|
d ---------------------------------------------------------------------|

e --------------------------------14---------14---------14-12-11----11-|
b ------------------------9-11-12----0-11-12----0-11-12----------12----|
g -9-9-9-9-11-11-11-11-11----------------------------------------------|
d -x-x-x-x-x--x--x--x--x-----------------------------------------------|
a -7-7-7-7-9--9--9--9--9-----------------------------------------------|
d ---------------------------------------------------------------------|

e -------------------------------------------------9---------11--------|
b -------------------9-11-12-11-0-11-12-11-0-11-12---12-11-9-----------|
g -9-9-9-9-8-8-8-8-8---------------------------------------------------|
d -x-x-x-x-x-x-x-x-x---------------------------------------------------|
a -7-7-7-7-6-6-6-6-6---------------------------------------------------|
d ---------------------------------------------------------------------|

e --------------------------------14---------14---------14-12-11----11-|
b ------------------------9-11-12----0-11-12----0-11-12----------12----|
g -9-9-9-9-11-11-11-11-11----------------------------------------------|
d -x-x-x-x-x--x--x--x--x-----------------------------------------------|
a -7-7-7-7-9--9--9--9--9-----------------------------------------------|
d ---------------------------------------------------------------------|


FILLER 1  PLAY ONCE
e ---------------------------------------------------------------------|
b ---------------------------------------------------------------------|
g ---------------------------------------------------------------------|
d ---------------------------------------------------------------------|
a 66--66--------------------------------------------------------------|
d -66--66--------------------------------------------------------------|


BREAKDOWN (slide up and down the neck)  PLAY ONCE
e ---------------------------------------------------------------------|
b ---------------------------------------------------------------------|
g ---------------------------------------------------------------------|
d 6/-6-6--9-9--4-4--11-11--2-2--1-1--6-6--9-9--4-411-11--2-2--1-1----|
a 6/-6-6--9-9--4-4--11-11--2-2--1-1--6-6--9-9--4-4-11-11--2-2--1-1----|
d 6/-6-6--9-9--4-4--11-11--2-2--1-1--6-6--9-9--4-411-11--2-2--1-1----|


e ---------------------------------------------------------------------|
b ---------------------------------------------------------------------|
g ---------------------------------------------------------------------|
d 6/-6-6--9-9--4-4--11-11--2-2--1-1--6-6--9-9--4-411-11--2-2--1-1----|
a 6/-6-6--9-9--4-4--11-11--2-2--1-1--6-6--9-9--4-4-11-11--2-2--1-1----|
d 6/-6-6--9-9--4-4--11-11--2-2--1-1--6-6--9-9--4-411-11--2-2--1-1----|

e ---------------------------------------------------------------------|
b ---------------------------------------------------------------------|
g ---------------------------------------------------------------------|
d ---------------------------------------------------------------------|
a ---------------------------------------------------------------------|
d -6-6-6-6-6-66-9-9-9-9-9-4-4-4-4-4-44---------------------------------|
   . . . . . .. . . . . . . . . . . ..

e ---------------------------------------------------------------------|
b ---------------------------------------------------------------------|
g ---------------------------------------------------------------------|
d ---------------------------------------------------------------------|
a ---------------------------------------------------------------------|
d -11-11-11-11-11-2-2-2-2-2-22-1-1-1-1-1-------------------------------|
   .  .  .  .  .  . . . . . .. . . . . .

:::::::::::::::::::::::::::::::::::::::::::::::::::::::::::::::::::::::
rhythm
e ---------------------------------------------------------------------|
b ---------------------------------------------------------------------|
g ---------------------------------------------------------------------|
d ---------------------------------------------------------------------|
a ---------------------------------------------------------------------|
d -6-6-6-6-6-66-9-9-9-9-9-4-4-4-4-4-44---------------------------------|
   . . . . . .. . . . . . . . . . . ..
e ----------14---------------------------------------------------------|
b -11-12-11----11-12---------------------------------------------------|
g ---------------------------------------------------------------------|
d ---------------------------------------------------------------------|
a ---------------------------------------------------------------------|
d -11-11-11-11-11-2-2-2-2-2-22-1-1-1-1-1-------------------------------|
   .  .  .  .  .  . . . . . .. . . . . .
lead
e ----------14----------------14----------------14---------------------|
b -11-12-11----11-12-11-12-11----11-12-11-12-11----11-12---------------|
g ---------------------------------------------------------------------|
d ---------------------------------------------------------------------|
a ---------------------------------------------------------------------|
d ---------------------------------------------------------------------|
:::::::::::::::::::::::::::::::::::::::::::::::::::::::::::::::::::::::

e ---------------------------------------------------------------------|
b ---------------------------------------------------------------------|
g ---------------------------------------------------------------------|
d ---------------------------------------------------------------------|
a ---------------------------------------------------------------------|
d 6/--6/--/6----------------------------------------------------------|





Comments


Popular Odd Project tabs & chords
A Hero's Trial Tabs
A Perfect Smile And Broken Wings Tabs
Electro Defy Me Tabs
Fashion Police Hate Robots Tabs
Midnight Lullaby Tabs
Silver Screen Lovers Intro Tabs
The Phone Is Such A Blunt Object Tabs
The Wanderer Tabs


Song lyrics



↑ Back to top | Tablatures and chords are parodies/interpretations of the original songs. You may use it for private study, scholarship, research or language learning purposes only
© 2014 AZChords.com Contact us | Privacy policy | DMCA | Add/correct tabs | Request tabs | Top 50 tabs