>
 >
Midnight Lullaby

Midnight Lullaby Guitar Tabs

Odd Project - Midnight Lullaby chords, tabs, tablatures, lyrics

Guitar lessons | Add/correct | Request | Top 50 tabs Artists:  A B C D E F G H I J K L M N O P Q R S T U V W X Y Z 0-9

Midnight Lullaby Guitar Tabs – Odd Project

CD, Sheet music, Poster

Do you like Midnight Lullaby? Share with your friends now
Tabs
-------------------------------------------------------------------------------
-------------------------------------------------------------------------------



Visit my blog for more Odd Project tabs.


Tuning: Standard E

e|---0-2/3---0-3/5---0-5/7---8-7-----0-2/3---0-3/5---8-5-----7-----|
B|-------------------------------------------------------7-----8---|
G|-------------------------------0-------------------------------9-|
D|-----------------------------------------------------------------|
A|-----------------------------------------------------------------|
E|-0-------0-------0-------0-------0-------0-------0-------0-------|

e|---0-2/3---0-3/5---0-5/7---8-7-----0-2/3---0-3\2-------|
B|-------------------------------------------------7-7-5-|
G|-------------------------------0-----------------------|
D|-------------------------------------------------------|
A|-------------------------------------------------5-5-3-|
E|-0-------0-------0-------0-------0-------0-------------|


For this next part, listen for the strumming pattern. 
The following chords are used respectively:          
                                                     
e|---7---5---3---|                                   
B|---8---7---5---|                                   
G|---9---7---5---|                                   
D|---9---7---5---|                                   
A|---7---5---3---|                                   
E|---------------|                                   
                                                     


e|---3-----3-------5-----5-------7-----7------7---|
B|-----5-----5-------7-----7-------8-----10-------|
G|----------------------------------------------9-|
D|------------------------------------------------|
A|-3-----3-----3-5-----5-----5--------------------|
E|-----------------------------0-----0------0-----|

e|---3-----3-------5-----5-------5-----5-------7-----7-|
B|-----5-----5-------7-----7-------7-----7-------8-----|
G|-----------------------------------------------------|
D|-----------------------------------------------------|
A|-3-----3-----3-5-----5-----5-6-----6-----6-----------|
E|-------------------------------------------0-----0---|

e|---3-----3-------5-----5-------2-----2-----3------3-----3------5-|
B|-----5-----5-------7-----7-------0-----0------------5-----5----7-|
G|---------------------------------------------------------------7-|
D|---------------------------------------------------------------7-|
A|-3-----3-----3-5-----5-----5-2-----2-----2------3-----3-----3--5-|
E|-----------------------------------------------------------------|

Riff A:
e|-----------------------------------------------------|
B|-8--8-8-x-x-7--7-7--7--x-x-8--8-8-x-x-5--5-5--5--x-x-|
G|-----------------------------------------------------|
D|-9--9-9-x-x-7--7-7--7--x-x------------5--5-5--5--x-x-|
A|-7--7-7-x-x-5--5-5--5--x-x-7--7-7-x-x-3--3-3--3--x-x-|
E|---------------------------5--5-5-x-x----------------|

Riff B:
e|-----------------------------------------------------|
B|-8--8-8-x-x-7--7-7--7--x-x-8--x-7-x-x-5--5-5--5--x-x-|
G|-----------------------------------------------------|
D|-9--9-9-x-x-7--7-7--7--x-x------------5--5-5--5--x-x-|
A|-7--7-7-x-x-5--5-5--5--x-x-7--x-7-x-x-3--3-3--3--x-x-|
E|---------------------------5--x-5-x-x----------------|

*Repeat A*

e|----------------------|
B|-8--8-8-x-x-7-------5-|
G|----------------------|
D|-9--9-9-x-x-7-------5-|
A|-7--7-7-x-x-5-------3-|
E|----------------------|

Riff C:
e|--------------------------------------------------|
B|--------------------------------------------------|
G|-7--7--7-7--7-7--7/9--11--11--11-11--11-11--11/14-|
D|--------------------------------------------------|
A|-5--5--5-5--5-5--5/7--9---9---9--9---9--9---9-/12-|
E|--------------------------------------------------|

Riff D:
e|-----------------------------------------------------------|
B|-----------------------------------------------------------|
G|-12--12--12-12--12-12--12/16--14--14--14-16-x-14-x-12-x-14-|
D|-----------------------------------------------------------|
A|-10--10--10-10--10-10--10/14--12--12--12-14-x-12-x-10-x-12-|
E|-----------------------------------------------------------|

*Repeat C*

e|---------------------------------|
B|---------------------------------|
G|-12--12--12-12--12-12--12/14--12-|
D|---------------------------------|
A|-10--10--10-10--10-10--10/12--10-|
E|---------------------------------|



| /  slide up
| \  slide down
| h  hammer-on
| p  pull-off
| ~  vibrato
| +  harmonic
| x  Mute note
===============================================================================





Comments


Popular Odd Project tabs & chords
A Hero's Trial Tabs
A Perfect Smile And Broken Wings Tabs
Electro Defy Me Tabs
Fashion Police Hate Robots Tabs
Silver Screen Lovers Tabs
Silver Screen Lovers Intro Tabs
The Phone Is Such A Blunt Object Tabs
The Wanderer Tabs


Song lyrics



↑ Back to top | Tablatures and chords are parodies/interpretations of the original songs. You may use it for private study, scholarship, research or language learning purposes only
© 2014 AZChords.com Contact us | Privacy policy | DMCA | Add/correct tabs | Request tabs | Top 50 tabs