>
 >
Fashion Police Hate Robots

Fashion Police Hate Robots Guitar Tabs

Odd Project - Fashion Police Hate Robots chords, tabs, tablatures, lyrics

Guitar lessons | Add/correct | Request | Top 50 tabs Artists:  A B C D E F G H I J K L M N O P Q R S T U V W X Y Z 0-9

Fashion Police Hate Robots Guitar Tabs – Odd Project

CD, Sheet music, Poster

Do you like Fashion Police Hate Robots? Share with your friends now
Tabs
The odd project – the second hand stopped
Fashion police HATE robots
Solo
Bu = Bend up
HO = Hammer on
PO = Pull off
/ = Slide up   FROM / To 
\ = Slide down FROM \ To 
#  = Vibrato                    (it’s easier to read than ~)
T  = Right Hand/finger taps the note (For good technique use your middle finger “picks
n’grins”)
Tremolo pick = Pick really really fast

Heard this solo and just had to learn it because it’s so damn cool
There was no tab for it so I learnt it myself and it wasn’t too hard 
To play in the end but still sounds amazing, so yeah Enjoy



        First melodic lines of solo
    BU BU BU                                                                    PH              
E |-10-10-10-------10-12-12/13\12-10----10----------------------------------------------------------------------13|
B |-13-13-13-10-13-------------------13----/15--------------------------------------------------------------------|
G |--------------------------------------------14-14#12-12-10-12-12/14-------------------------9-9/10\9#----------|
D |--------------------------------------------------------------------12-10-10-12-10-12-10-12----------12-10#\---|
A |---------------------------------------------------------------------------------------------------------------|
D |---------------------------------------------------------------------------------------------------------------|

         Then comes the tapping section which is quite a stretch 
        at first unless you’ve got giant hands or are used to this kinda stretching

    T PO PO PO HO HO  T PO PO PO HO HO  T PO PO PO             
E |-17-13-10-8--10-13-17-13-10-8--10-13-17-13-10-8--|
B |-------------------------------------------------|
G |-------------------------------------------------| X 2
D |-------------------------------------------------|
A |-------------------------------------------------|
D |-------------------------------------------------|

    T PO PO PO HO HO  T PO PO PO HO HO  T PO PO PO
E |-15-12-8--7--8--12-15-12-8--7--8--12-15-12-8--7--|
B |-------------------------------------------------|
G |-------------------------------------------------|
D |-------------------------------------------------| X 2
A |-------------------------------------------------|
D |-------------------------------------------------|

        You kinda have to slide from tap into soloing again very slyly here

   HO HO  T PO
E |-8--12-15-12-13/15-15/17-15-13-12------------------12-12-12-12----13-12#\-|
B |----------------------------------13-10-13-13/15#\-------------13---------|
G |------------------------------------------------------------------------|
D |------------------------------------------------------------------------|
A |------------------------------------------------------------------------|
D |------------------------------------------------------------------------|

E |-13-12----13-12----13----13-12----13-12----13----|-12-10---12-10---12---12-10---12-10---12---|
B |-------10-------10----10-------10-------10----10-|-------8-------8----8-------8-------8----8-|
G |-------------------------------------------------|-------------------------------------------|
D |-------------------------------------------------|-------------------------------------------|
A |-------------------------------------------------|-------------------------------------------|
D |-------------------------------------------------|-------------------------------------------|

Really cool Trem pick section I have’nt written the exact 
amount of notes played just listen and play along
E |-15-15-15-15-15-15---17-17-17-17-17-17----20-20-20-20-20-20---22-22-22-22-22-22--|
B |---------------------------------------------------------------------------------|
G |---------------------------------------------------------------------------------|
D |---------------------------------------------------------------------------------|
A |---------------------------------------------------------------------------------|
D |---------------------------------------------------------------------------------|
 
                                                         BU big bend wide vibrato
E |-21-21-21-21-21-21-----------------------------------------|
B |---------------------20-20-20-20-20-20----22-22-22----14---|
G |-----------------------------------------------------------|
D |-----------------------------------------------------------|
A |-----------------------------------------------------------|
D |-----------------------------------------------------------|


    BU BU BU  BU BU BU  BU BU BU  BU   T PO PO HO  T PO PO HO  T PO PO HO  T PO PO HO
E |-10-10-10--12-12-12--13-13-13—-12#--15-12-10-12-15-12-10-12-15-12-10-12-15-12-10-12-----|
B |-13-13-13--15-15-15--16-16-16—-15#------------------------------------------------------|
G |----------------------------------------------------------------------------------------|
D |----------------------------------------------------------------------------------------|
A |----------------------------------------------------------------------------------------|
D |----------------------------------------------------------------------------------------|

   On this bar the slides up are done with the right hand
    T    PO PO HO  T    PO PO HO  T    PO PO HO  T    PO PO HO
E |-15/17-12-10-12-15/17-12-10-12-15/17-12-10-12-15/17-12-10-12-|
B |-------------------------------------------------------------|
G |-------------------------------------------------------------|
D |-------------------------------------------------------------|
A |-------------------------------------------------------------|
D |-------------------------------------------------------------|

    T PO PO HO  T PO PO HO  T PO PO HO  T PO PO HO    T    PO PO HO  T PO PO HO  T PO PO HO  T PO PO HO  
E |-17-12-10-12-17-12-10-12-17-12-10-12-17-13-10-13-|-17/19-15-12-15-19-15-12-15-19-15-12-15-19-15-12-15-|
B |-------------------------------------------------|----------------------------------------------------|
G |-------------------------------------------------|----------------------------------------------------|
D |-------------------------------------------------|----------------------------------------------------|
A |-------------------------------------------------|----------------------------------------------------|
D |-------------------------------------------------|----------------------------------------------------|

    Tremolo pick this bar X2                                                        BU 
E |-22-22-22-22-22-22-20-20-20-20-20-20-------------------|     |-22-20----22-20----22#-|-22-20----------------------------|
B |-------------------------------------22-22-22-22-22-22-|     |-------22-------22-----|-------22-20-18-17-17-18-18/20-14-|
G |-------------------------------------------------------|     |-----------------------|----------------------------------|
D |-------------------------------------------------------| X2  |-----------------------|----------------------------------|
A |-------------------------------------------------------|     |-----------------------|----------------------------------|
D |-------------------------------------------------------|     |-----------------------|----------------------------------|

Fade out
END





Comments


Popular Odd Project tabs & chords
A Hero's Trial Tabs
A Perfect Smile And Broken Wings Tabs
Electro Defy Me Tabs
Midnight Lullaby Tabs
Silver Screen Lovers Tabs
Silver Screen Lovers Intro Tabs
The Phone Is Such A Blunt Object Tabs
The Wanderer Tabs


Song lyrics



↑ Back to top | Tablatures and chords are parodies/interpretations of the original songs. You may use it for private study, scholarship, research or language learning purposes only
© 2014 AZChords.com Contact us | Privacy policy | DMCA | Add/correct tabs | Request tabs | Top 50 tabs