>
 >
Electro Defy Me

Electro Defy Me Guitar Tabs

Odd Project - Electro Defy Me chords, tabs, tablatures, lyrics

Guitar lessons | Add/correct | Request | Top 50 tabs Artists:  A B C D E F G H I J K L M N O P Q R S T U V W X Y Z 0-9

Electro Defy Me Guitar Tabs – Odd Project

CD, Sheet music, Poster

Do you like Electro Defy Me? Share with your friends now
Tabs
-------------------------------------------------------------------------------
-------------------------------------------------------------------------------



Tuning: Drop D

e|------------------------------------|
B|------------------------------------|
G|------------------------------------|
D|----------------7-5---5-------------|
A|-5\---------7-8-----7---8-5-8-7-8-7-|
D|-----0-0-0--------------------------|
       PM...

~~~~~~~~~~~~~~~~~~~~~~~~~~~~~~~~~~~~~~~
Guitar 1:
e|------------------------------------|
B|------------------------------------|
G|------------------------------------|
D|----------------7-5---5---------8-7-|
A|-5\---------7-8-----7---8-5-8-7-----|
D|-----0-0-0--------------------------|
       PM...

Guitar 2:
e|------------------------------------|
B|------------------------------------|
G|------------------------------------|
D|--------------------------------5-3-|
A|----------------------------5-3-----|
D|------------------------------------|

~~~~~~~~~~~~~~~~~~~~~~~~~~~~~~~~~~~~~~~

e|------------------------------------|
B|------------------------------------|
G|------------------------------------|
D|----------------7-5---5-------------|
A|-5\---------7-8-----7---8-5-8-7-8-7-|
D|-----0-0-0--------------------------|
       PM...

e|------------------|
B|------------------|
G|------------------|
D|------------------|
A|-5\----------0--0-|
D|-----0-0-0---0--0-|
       PM..........

~~~~~~~~~~~~~~~~~~~~~~~~~~~~~~~~~~~~~~~
Guitar 1:
e|------------------------------------|
B|------------------------------------|
G|------------------------------------|
D|----------------7-5---5-------------|
A|-5\---------7-8-----7---8-5-8-7-8-7-|
D|-----0-0-0--------------------------|
       PM...

Guitar 2:
e|------------------------------------|
B|------------------------------------|
G|------------0-2-5-3---3-2---2-0-2-0-|
D|--------------------0-----0---------|
A|------------------------------------|
D|------------------------------------|

Well I am new at this...

~~~~~~~~~~~~~~~~~~~~~~~~~~~~~~~~~~~~~~~
Guitar 1:
e|------------------------------------|
B|------------------------------------|
G|------------------------------------|
D|----------------7-5---5---------8-7-|
A|-5\---------7-8-----7---8-5-8-7-----|
D|-----0-0-0--------------------------|
       PM...

Guitar 2:
e|------------------------------------|
B|------------------------------------|
G|------------0-2-5-3---3-2---2-0-7-6-|
D|--------------------0-----0---------|
A|------------------------------------|
D|------------------------------------|

Yeah this honesty business...

~~~~~~~~~~~~~~~~~~~~~~~~~~~~~~~~~~~~~~~
Guitar 1:
e|------------------------------------|
B|------------------------------------|
G|------------------------------------|
D|----------------7-5---5-------------|
A|-5\---------7-8-----7---8-5-8-7-8-7-|
D|-----0-0-0--------------------------|
       PM...

Guitar 2:
e|------------------------------------|
B|------------------------------------|
G|------------0-2-5-3---3-2---2-0-2-0-|
D|--------------------0-----0---------|
A|------------------------------------|
D|------------------------------------|

And I'm trying...

~~~~~~~~~~~~~~~~~~~~~~~~~~~~~~~~~~~~~~~
Guitar 1:
e|------------------------------------|
B|------------------------------------|
G|------------------------------------|
D|----------------7-5---5-----7~------|
A|-5\---------7-8-----7---8-7---------|
D|-----0-0-0--------------------------|
       PM...

Guitar 2:
e|------------------------------------|
B|------------------------------------|
G|------------0-2-5-3---3-2---6~------|
D|--------------------0-----0---------|
A|------------------------------------|
D|------------------------------------|

My two red hands at it...

~~~~~~~~~~~~~~~~~~~~~~~~~~~~~~~~~~~~~~~

e|---------------------------------------------------------------|
B|---------------------------------------------------------------|
G|---------------------------------------------------------------|
D|---------------------------------------------------------------|x2
A|---------------------------------------------------------------|
D|-12-0-12-10--0-10-8--0-8-7-8-10-8-10--7-0-7-5--0-5-3--0-3-7--3-|

Yeah yeah yeah yeah yeah...

e|-------13----13p12-------12----12\8-|
B|------------------------------------|
G|------------------------------------|
D|-12-12----12-------12-12----12------|
A|------------------------------------|
D|------------------------------------|
   PM...    PM       PM...    PM



***jumping ahead to the chorus, solo and breakdown***



Chorus

~~~~~~~~~~~~~~~~~~~~~~~~~~~~~~~~~~~~~~~~~~~~~~~~~~~~~~~~~~~~~~~~~
Guitar 1:
e|--------------------------------------------------------------|
B|--------------------------------------------------------------|
G|--------------------------------------------------------------|
D|--------------------------------------------------------------|
A|-8-----------------8-----------------3------------5-----------|
D|-8-----------------7-----------------3------------5-----------|

Guitar 2:
e|--------------------------------------------------------------|
B|--------------------------------------------------------------|
G|-----10---12---10------10---12---10--9--9h10p9\7--10/12~--5-7-|
D|-8-8----8----8-----7-7----7----7----------------10------------|
A|--------------------------------------------------------------|
D|--------------------------------------------------------------|
   PM.    PM   PM    PM.    PM   PM 

You are the fire inside, the lightning of the storm.
 
~~~~~~~~~~~~~~~~~~~~~~~~~~~~~~~~~~~~~~~~~~~~~~~~~~~~~~~~~~~~~~~~~
Guitar 1:
e|--------------------------------------------------------------|
B|--------------------------------------------------------------|
G|--------------------------------------------------------------|
D|--------------------------------------------------------------|
A|-8-----------------8-----------------3-------------0----------|
D|-8-----------------7-----------------3-------------0----------|

Guitar 2:
e|--------------------------------------------------------------|
B|--------------------------------------------------------------|
G|-----10---12---10------10---12---10--9--9h10p9\7--------------|
D|-8-8----8----8-----7-7----7----7----------------10-10/12~-5-7-|
A|--------------------------------------------------------------|
D|--------------------------------------------------------------|
   PM.    PM   PM    PM.    PM   PM 

You burn the bridges and they keep me warm.

~~~~~~~~~~~~~~~~~~~~~~~~~~~~~~~~~~~~~~~~~~~~~~~~~~~~~~~~~~~~~~~~~


Solo 

e|----------------------------------------------|
B|----------------------------------------------|
G|----------------------------------------------|
D|--------------------------------------------0-|
A|-12-12-12--10--8--8/10--------7-7--8--7-5-3-0-|
D|----------------------------------------------|

(And I want to burn...)

e|-12b13-------------------------------17~---------------------------|
B|--------13b15~--11h14h15p14p11-------------------------------------|
G|-------------------------------12-10-----15-12--14----12-----------|
D|---------------------------------------------------15----14-12/14~-|
A|-------------------------------------------------------------------|
D|-------------------------------------------------------------------|

e|---------------------------------------------------------------------------|
B|-13----15-17b18b17-15------------17-15-14----------------------------------|
G|----14----------------15/17\14------------15--14---------------------------|
D|--------------------------------------------------17--15--/14-12-----------|
A|------------------------------------------------------------------15-13-12-|
D|---------------------------------------------------------------------------|


Breakdown

e|---------------------------------------------------------------------|
B|---10-12-12/14---10----10-12-12/14---10------------------------------|
G|-8-------------------7------------------------9-9/10--9-7-5-9h10p9\7-|
D|-------------------------------------------10------------------------|
A|-----------------------------------------7---------------------------|
D|---------------------------------------------------------------------|

Take me deep under your wing.

e|-------------------------------------------------------|
B|-------------------------------------------------------|
G|-----14-15-15/17--15-14-15-------14-15-15/17--12-14/17-|
D|-/12---------------------------------------------------|
A|-----------------------------/15-----------------------|
D|-------------------------------------------------------|

And feel, oh god this feels so real.

e|-------------------------------------------------------|
B|------------------------8h10p8\6-8h10p8\6-8h10p8\6--8\-|
G|----9-12-12/14--12-10-9--------------------------------|
D|-10----------------------------------------------------|
A|-------------------------------------------------------|
D|-------------------------------------------------------|

I'm waiting at your bedside, just open those bright blue eyes.


***Check my blog updates for more Odd Project tabs*** 


| /  slide up
| \  slide down
| h  hammer-on
| b  bend
| p  pull-off
| ~  vibrato
| +  harmonic
| x  Mute note
===============================================================================





Comments


Popular Odd Project tabs & chords
A Hero's Trial Tabs
A Perfect Smile And Broken Wings Tabs
Fashion Police Hate Robots Tabs
Midnight Lullaby Tabs
Silver Screen Lovers Tabs
Silver Screen Lovers Intro Tabs
The Phone Is Such A Blunt Object Tabs
The Wanderer Tabs


Song lyrics



↑ Back to top | Tablatures and chords are parodies/interpretations of the original songs. You may use it for private study, scholarship, research or language learning purposes only
© 2014 AZChords.com Contact us | Privacy policy | DMCA | Add/correct tabs | Request tabs | Top 50 tabs