» » »

Odd Project, A Perfect Smile And Broken Wings Tabs (ver.1)

Artists:  A B C D E F G H I J K L M N O P Q R S T U V W X Y Z # 

A Perfect Smile And Broken Wings Tabs (ver.1)

Odd Project Tabs
 Rating:
4.2/5 (5 votes)
A Perfect Smile And Broken Wings lessons Tabs too difficult? Try these video lessons and learn fast
1
                -------------------------------------------------------------------------------
-------------------------------------------------------------------------------
Note: this is close but not exact and unfinished, If anyone has updates or comments they are welcome!

Tuning: Drop D Tuning

** a little intro
e|---------------------------------------------------------------------------|
B|------xx------xx------xx------xx-------------------------------------------|
G|--6~--xx--6~--xx--6~--xx--6~--xx-------------------------------------------|
D|--4~--xx--4~--xx--4~--xx--4~--xx-------------------------------------------|
A|--4~--xx--4~--xx--4~--xx--4~--xx-------------------------------------------|
D|--4~--xx--4~--xx--4~--xx--4~--xx-------------------------------------------|

** these notes are speed picked (around double what is written)
e|---------------------------------------------------------------------------|
B|---------------------------------------------------------------------------|
G|-------------------------------------4444----66667777----------------------|
D|-444466667777----77776666----66667777----7777------------------------------|
A|-------------5555--------7777----------------------------------------------|
D|---------------------------------------------------------------------------|

 continued...
e|---------------------------------------------------------------------------|
B|---------------------------------------------------------------------------|
G|--------------------------------------4-------4----------------------------|
D|-444466667777----77776666----66667777---7-6-7---7-6-7~~~-------------------|
A|-------------5555--------7777----------------------------------------------|
D|---------------------------------------------------------------------------|

*** 1st verse
e|---------------------------------------------------------------------------|
B|------------------------------------------------7h10-----------------------|
G|----------------------------------7-6h8------9p7---------------------------|
D|-4444-7-4-6h7--4444-7-4-6h7--6666-------9999-------------------------------|
A|-4444---4------4444---4------4444-------7777-------------------------------|
D|-4444---4~-----4444---4~---------------------------------------------------|
   xxxx   x      xxxx   x      xxxx       xxxx

*** transition
e|--------------------------------------------------------------------------------------------------|
B|--------------------------------------------------------------------------------------------------|
G|--------------------------------------------------------------------------------------------------|
D|-44--4444-4-4-4--2---44--4444-4-4-4--4+--44--4444-4-4-4--2---44--4444-4-4-4----6----7-------------|
A|-44--4444-4-4-4--2---44--4444-4-4-4------44--4444-4-4-4--2---44--4444-4-4-4-----------------------|
D|-44--4444-4-4-4--2---44--4444-4-4-4------44--4444-4-4-4--2---44--4444-4-4-4------44---44----------|
   xx  xxxx x x x      xx  xxxx x x x      xx  xxxx x x x      xx  xxxx x x x

*** solo (close) unfinished
e|---------------------------------------------------12----/12-14-16-17~-----------|
B|--7-----10~-----------------------10~--10-10-10-10----9--------------------------|
G|-b9-979--------------------7-9-11------------------------------------------------|
D|--------------------7-9-11-------------------------------------------------------|
A|------------/7-9-11--------------------------------------------------------------|
D|---------------------------------------------------------------------------------|
            
Submit corrections

comments powered by Disqus
↑ Back to top | Odd Project Tabs for A Perfect Smile And Broken Wings. Lyrics for acoustic guitar and electric guitar. 1 Tablatures and chords are parodies/interpretations of the original songs. You may use it for private study, scholarship, research or language learning purposes only