» » »

October Fall, It Was Summer... (Baby Steps) Tabs (ver.1)

Artists:  A B C D E F G H I J K L M N O P Q R S T U V W X Y Z # 

It Was Summer... (Baby Steps) Tabs (ver.1)

October Fall Tabs
Rating:
0/5 (0 votes)
It Was Summer... (Baby Steps) lessons Tabs too difficult? Try these video lessons and learn fast
                Rhythm
e|----------------|
B|----------------|
G|------2~--------|
D|------2~--------|
A|------0~--------|
D|----------------|

Lead (play this on top of the rhythm below)
e|---------------------------|
B|---------------------------|
G|--22--4--2--4/6--4/2-------| x 9
D|---------------------------|
A|---------------------------|
D|---------------------------|

Rhythm
e|----------------|
B|----------------|
G|---2222222222---| repeat as needed
D|---2222222222---|
A|---0000000000---|
D|----------------|

Both guitars @0:16
e|---0~---0~--------|
B|---0~-----0~------|
G|---2~-------2~----| x2
D|---2~-------------|
A|---0~-------------|
D|------------------|

after that just repeat the intro bit 

Chorus
e|---------------------------------------|
B|---------------------------------------|
G|--222222-------------------------------|
D|--222222--4444444--00000000--22222222--|
A|--000000--4444444--00000000--22222222--|
D|----------4444444--00000000--22222222--|

after chorus you just repeat the other parts then the chorus again
after you repeat the chorus a second time this is what you play
e|-----------------------------|
B|-----------------------------|
G|-----------------------------|
D|-0000000--22222222--4444444--|
A|-0000000--22222222--4444444--|
D|-0000000--22222222--4444444--|
   .......  ........  .......

after that part you repeat the chorus 
ending
e|----------------|
B|----------------|
G|-----2~---------|
D|-----2~---------|
A|-----0~---------|
D|----------------|
            
Submit corrections

comments powered by Disqus
↑ Back to top | October Fall Tabs for It Was Summer... (Baby Steps). Lyrics for acoustic guitar and electric guitar. Tablatures and chords are parodies/interpretations of the original songs. You may use it for private study, scholarship, research or language learning purposes only