» » »

Oc Supertones, Where I Find You Tabs (ver.1)

Artists:  A B C D E F G H I J K L M N O P Q R S T U V W X Y Z # 

Where I Find You Tabs (ver.1)

Oc Supertones Tabs
Rating:
0/5 (0 votes)
Where I Find You lessons Tabs too difficult? Try these video lessons and learn fast
                E)-----------------------------------------------------------|
B)-----------------------------------------------------------|(x2)
G)-----------------------------------------------------------|
D)----------------------------------------------------9--(x4)|
A)-----9---(x6------8----------4--------6---(x4)------7------|
E)-----7------------6----------2--------4--------------------|

Chords:
xB x C#- x D#- x E (x4 hits each)

"and im terrified...."
E)--------------------------------------------------------|
B)--------------------------------------------------------|
G)--------------------------------------------------------|
D)---------------------------------6----------------------|(x2)
A)-------9--------4-------2--------4-(x4)---9(x4)---------|
E)-------7--------2-------0-----------------7-------------|

"i knew. that this is where i find you. i dont have to remind you..."
E)------------------------------------------------R-----------|
B)------------------------------------------------E-----------|
G)------------------------------------------------P-----------|
D)------------4--(x4)-----------------------------E-----------|
A)---2-(x4)---2--------4------------6---(x4)------A-----------|
E)---0-----------------2--(x4)------4-------------T-----------|
repeat only to ____here^ then go back to the beginning of the phrase. You'll get it.

E)--------------------------------------------------------|
B)--------------------------------------------------------|
G)--------------------------------------------------------|
D)-----------6----6-------------------6----6--------------|
A)------4h6-------------?b-------4h6-------------5b-------|
E)--------------------------------------------------------|
I'll add the rest of the solo in a minute.
            

comments powered by Disqus
↑ Back to top | Oc Supertones Tabs for Where I Find You. Lyrics for acoustic guitar and electric guitar. Tablatures and chords are parodies/interpretations of the original songs. You may use it for private study, scholarship, research or language learning purposes only