» » »

Shut Up And Play Bass tabs (ver.1)

Artists:  A B C D E F G H I J K L M N O P Q R S T U V W X Y Z # 

Shut Up And Play Bass tabs (ver.1)

Oc Supertones
Rating:
0/5 (0 votes)

Tabs too difficult? Try these video lessons and learn fast.
                Shut up and Play  O.C. Supertones 
-------------------------------------------------------------------------------


 intro and interlude
G|---------------------------------------------------------------------|
D|--------------------------------------------8-7-5---5----------------|
A|-2------2-----2-3-2-0-0-2-3-2-0-0-\6--6------------8-----2-2-3-3-5-5-|    2
E|---3-2----3-2-----------------------------------------3--------------|

  verse
G|--------------------------------------------------------------------|
D|--------------------------------------------------------------------|
A|-------------2----------------4-7-6-6-5-h6-6-6-5-h6---2-2-3-3-5-5-5-|
E|-3-3-2h3-3-3---3-5-5-4-h5-5-5-----------------------3---------------|

G|--------------------------------------------------------------------|
D|--------------------------------------------------------------------|
A|-------------2----------------4-7-6-6-5-h6-6-6-5-h6---2-2-3-3-5-5-5-|
E|-3-3-2h3-3-3---3-5-5-4-h5-5-5-----------------------3---------------|

  pre-chorus 
G|-----------------------------------------------------------------------------|
D|-------------------5------------------5--------------------5-----------------|
A|-7-7-7-7-7-7-7-5h7---5-5-5-5-5-5-5h7---7-7-7-7-7-7-7-7-5h7---5-5-5-5-5-5-5-5-|
E|-----------------------------------------------------------------------------|

  chorus 
G|-----------------------------------------------------------------------------|
D|-----------------------------------------------------------------------------|
A|-----------------------------------------------------------------------------|
E|-5-5-5-5-5-5-5-5-7-7-7-7-7-7-7-7-8-8-8-8-8-8-8-10-h9-10-h9-10-h9-10-h9-10-h9-|

G|-----------------------------------------------------------------------------|
D|-----------------------------------------------------------------------------|
A|---------------7-7-7-7-7-7-7-7-3-3-3-3-3-3-3-3-5-5-5-5-5-5-5-----------------|
E|-3-3-3-3-3-3-3-----------------------------------------------3-3-3-3-3-3-3-3-|

G|-----------------------------------------------|
D|-----------------------------------------------|
A|-7-7-7-7-7-7-7-3-3-3-3-3-3-3-3-5-5-5-5-5-5-5-5-|
E|-----------------------------------------------|

  solo
G|--------------------------------------------------------------------------------------|
D|--------------------------------------------------------------------------------------|
A|-------------5-3-3-3-3-3-3-3-7-7-7-5-5-5-5-2-2-2-2-2-3-3-3-3-0-0-0-0-0--3-3-3-5-5-5-5-|
E|-3-3-3-3-3-3--------------------------------------------------------------------------|
G|--------------------------------------------------------------------------------------|
D|--------------------------------------------------------------------------------------|
A|-------------5-3-3-3-3-3-3-3-7-7-7-5-5-5-5-2-2-2-2-2-3-3-3-3-0-0-0-0-0--3-3-3-5-5-5-5-|
E|-3-3-3-3-3-3--------------------------------------------------------------------------|

G|---------------------------------------------|
D|---------------------------------------------|
A|-----------------------------------3-3-3-5-5-|
E|--3--------3--------3--------3---------------|

  outro
G|-----------------------------------------------------------------------------|
D|-----------------------------------------------------------------------------|
A|---------------7-7-7-7-7-7-7-7-3-3-3-3-3-3-3-3-5-5-5-5-5-5-5-----------------|
E|-3-3-3-3-3-3-3-----------------------------------------------3-3-3-3-3-3-3-3-|

G|-------------------------------------------------|
D|-------------------------------------------------|
A|-7-7-7-7-7-7-7-3-3-3-3-3-3-3-3-5-5-5-5-5-5-5-5---|
E|-----------------------------------------------3-|



    Putting it together: 
    intro  2
    verse
    pre-chorus
    chorus
    interlude 2
    verse
    pre-chorus
    chorus
    solo
    outro
   


===============================================================================
            
Tabs too difficult? Try these video lessons and learn fast.




comments powered by Disqus
↑ Back to top | Tablatures and chords are parodies/interpretations of the original songs. You may use it for private study, scholarship, research or language learning purposes only