» » »

Women Who Love Men Who Love Drugs Tabs (ver.1)

Artists:  A B C D E F G H I J K L M N O P Q R S T U V W X Y Z # 

Women Who Love Men Who Love Drugs Tabs (ver.1)

Oceansize
Rating:
0/5 (0 votes)

Hard to play? Try these video lessons and learn fast.
                Intro

E|---------------------------------------------------------------------------------------------------|
B|--11-------11-------11-------11-------11-------11-------11-------11-------11----------13-----------|

(x2)
D|--------12-------12-------12-------12-------12-------12-------12-------12-------12----------12-----|
A|---------------------------------------------------------------------------------------------------|
E|---------------------------------------------------------------------------------------------------|

E|---------------------------------------------------------------------------------------------------|
B|--11-------11-------11-------11-------13----------10-------10-------10-------10-------13-----------|
G|-----10-------10-------10-------10-------10----12----10-------10-------10-------10-------10----12--|
D|--------12-------12-------12-------12-------12----------12-------12-------12-------12-------12-----|
A|---------------------------------------------------------------------------------------------------|
E|---------------------------------------------------------------------------------------------------|


1:13

E|---------------------------------------------------13-13-13-13-13-13-13-13--15-15-15-15-15-15-15---|
B|--11-------11-------11-------11-------13-----------10-10-10-10-10-10-10-10--13-13-13-13-13-13-13---|
G|-----10-------10-------10-------10-------10----12--------------------------------------------------|

(x4 on fourth time)

    get quieter
E|---------------------------------------------------------------------------------------------------|

E|---------------10-------10-------10-------10-------10----10-------10-------10-------10-------10-------10-----10--|
B|-11---11----11-------11-------11-------11-------11----11-------11-------11-------11-------11-------11----11------|
G|---------12-------12-------12-------12-------12-------------12-------12-------12-------12-------12---------------|
D|-----------------------------------------------------------------------------------------------------------------|
A|-----------------------------------------------------------------------------------------------------------------|
E|-----------------------------------------------------------------------------------------------------------------|

E|--------10-------10-------10--------10-------10-------10---|
B|-----11-------11-------11--------11-------11-------11------|
G|--12-------12-------12--------12-------12-------12---------| (fade out)
D|-----------------------------------------------------------|
A|-----------------------------------------------------------|
E|-----------------------------------------------------------|


2:02 - Timing seems tricky but is a lot simpler than it sounds.

E|-----------------------------------------------------------------13-13-------------------|
B|--13-13--11-11--10-10-10-10------------------13-13--11-11--10-10-------15--15--15-----15-|
G|-----------------------------10--10--10--10---------------------------------------17b----|
D|-----------------------------------------------------------------------------------------|
A|-----------------------------------------------------------------------------------------|
E|-----------------------------------------------------------------------------------------|

E|------------------------------------------------------------------13-13------------------|
B|--13-13--11-11--10-10-10-10-------------------13-13--11-11--10-10-------15--15--15--15---|
G|-----------------------------10--10--10-12-10--------------------------------------------|
D|-----------------------------------------------------------------------------------------|
A|-----------------------------------------------------------------------------------------|
E|-----------------------------------------------------------------------------------------|

This Riff loops and gradually intertwines (big word) with the other guitars, goes crazy 
then back
into a more relaxed mood. I know that everyone knows this but I'm covering up for the 
that I
haven't got anymore than this.

Mike Tapia
            
Hard to play? Try these video lessons and learn fast. | Correct




comments powered by Disqus
↑ Back to top | Tablatures and chords are parodies/interpretations of the original songs. You may use it for private study, scholarship, research or language learning purposes only