» » »

Unfamiliar Bass tabs (ver.1)

Artists:  A B C D E F G H I J K L M N O P Q R S T U V W X Y Z # 

Unfamiliar Bass tabs (ver.1)

Oceansize
Rating:
5/5 (1 vote)

Hard to play? Try these video lessons and learn fast.
                -------------------------------------------------------------------------------
-------------------------------------------------------------------------------


Tuning: DROP D

This song is jawdropping. The whole arrangement and creativity is astonishing. The bass 
is also challenging as the time signature is changing constantly and not between simple 
between 11/4 amongst others.
The actual playing is less hard but still really interesting and fun to play.

THIS IS THE EDIT. I WILL UPDATE WHEN I GET THE FULL VERSION.

intro:
G|---------------------------------------------------------------------|
D|---------------------------------------------------------------------|
A|---------------------------------------------------------------------|
D|-8-8-8-8-8-8-8-8-0-0-0-0-0-0-0-0-8-8-8-8-10-10-8-8-0-0-0-0-10-8-8-8--|

first riff:
G|---------------------------------------------------------------------------------------|
D|---5-7-----5-7-----5-7-----5-7----------3-------3--------------------------------------|
A|-------8-------8-------8-------8-------------------------------------------------------|
D|-5-------5-------5-------5---------3--------3------------------------------------------|

then arpeggio bit:
G|----------------------------------------------------------------------------------|
D|-----7-----7-------7-----7--------------------------------------------------------|
A|---8-----8---8---8-----8---8--x2--------------------------------------------------|
D|-8-----8-------8-----8------------------------------------------------------------|

Verse: "during in the laceration....."
G|---------------------------------------|
D|---------------------------------------|
A|----------------------arpeggio-bit-x2--|
D|-0-------5--------3--------------------|

G|-----------------------------------------------------|
D|-------------3-5-------5-3-2-------------------------|
A|-----------5-----------------3------arpeggio-bit-x2--|
D|0--------5------5----3---------5-3-------------------|

then: "when I see I see my signs"
G|--------------------------------------------------------------------------------------|
D|--------------------------------------------------------------------------------------|
A|----8-7-3-1-0-1-3-1-0-----------------------------------------------------------------|
D|-0------------------------------------------------------------------------------------|

riff 2: "Its the same face...."
G|---------------------------------------------------|
D|---5-7-----5-7-----5-7-----5-7---------------------|
A|-------8-------8-------8-------8--arpeggio-bit-x2--|
D|-5-------5-------5-------5-------------------------|

"if you keep walking side ways" | "if you keep changing your mind"
G|-----------------------------------------------------------------|
D|---3--35---3-35---3-35---3-35------------------------------------|
A|---------------------------------5--53---5--53---5--53---5---53--|
D|-3--------3-----3------3-------0---0---0---0---0---0---0---0-----|

repeat all of riff 2 except "if you keep changing your mind" bit

then: "When i see i see my signs"

G|------------------------------------------------------------------------------|
D|------------------------------------------------------------------------------|
A|---5-3-0-1-0-1-3-1-0-x2-------------------------------------------------------|
D|-0----------------------------------------------------------------------------|

then: "obselete your voices are"
G|-------------------------------------------------------------------------------|
D|-------------------------5--5--5--5--5--5--5--5--------------------------------|
A|-6--6--6--6--6--6--6--6-------------------------x2-----------------------------|
D|-------------------------------------------------------------------------------|

then:
G|------------------------------------------|
D|------------------------------------------|
A|------------------------------------------|
D|-8--8--8--8--8--8--8--8--0-0-0-0-0-0-0-0--|

then: "they say silence it sometimes pays"
G|---------------------------------------------------------------------------------------|
D|-13-13----13-13-----------------------------x2-----------------------------------------|
A|-------13-------13-11---13-10-8-10-6-10-8-6--------------------------------------------|
D|---------------------------------------------------------------------------------------|

G|-----------------------------------------------------------------------------|
D|-----------------------------------------------------------------------------|
A|----------------------------------------------x2-----------------------------|
D|-1--1--1--1--1--1--1--1--5--5--5--5--5--5--5--5------------------------------|

then arpeggios: "souls and windows stop existing...."
G|---------------------------------------------------------------------------------------|
D|-----7-----7-------7-----7--------------10-12-----5---3--------------------------------|
A|---8-----8---8---8-----8-----10-8----12---------5-------3-x2---------------------------|
D|-8-----8-------8-----8----10------12----------5-----3----------------------------------|

"needle and thread hold together...."
G|-------------------------------------------------------------------------------------|
D|-------------------------------10----------------------------------------------------|
A|---------------10-12--13-12-13----5---------(slow)-----------------------------------|
D|-8-7-8--10--12-----------------------5-7---------------------------------------------|

arpeggios x4 (starting at "saw the seashore, unfamiliar")

then finish with:
G|-------------------------|
D|-------------------------|
A|-------------------------|
D|-8-7-8-8-8-8-8-7-8-8888--|
| /  slide up
| \  slide down
| h  hammer-on
| p  pull-off
| ~  vibrato
| +  harmonic
| x  Mute note
===============================================================================
            
Hard to play? Try these video lessons and learn fast. | Correct




comments powered by Disqus
↑ Back to top | Tablatures and chords are parodies/interpretations of the original songs. You may use it for private study, scholarship, research or language learning purposes only