>
 >
Sleeping Dogs And Dead Lions

Sleeping Dogs And Dead Lions Bass Tabs

Oceansize - Sleeping Dogs And Dead Lions chords, tabs, tablatures, lyrics

Guitar lessons | Add/correct | Request | Top 50 tabs Artists:  A B C D E F G H I J K L M N O P Q R S T U V W X Y Z 0-9

Sleeping Dogs And Dead Lions Bass Tabs – Oceansize

CD, Sheet music, Poster

Do you like Sleeping Dogs And Dead Lions? Share with your friends now
Bass Tabs
-------------------------------------------------------------------------------
-------------------------------------------------------------------------------


Tuning: CGCF

Absolute tune. Heavy how it should be done: complex and interesting. This is good fun to 
Watch out for tuning and timing. This is note for note stuff, enjoy.

Main riff: (11's, not 1's)
F|-----------------------------------------------|
C|-----------------------------------------------|
G|-11-000-11111111-0-11-000-11111111-0-11111111--|
C|-----------------------------------------------|

verse (0.38) (11's, 14's and 12's not 1,4,2)
F|---------------------------------------------|
C|----------------------------(these-are-2's)--|
G|-11-000-14141414-12-11-000-2222-0-2222-0-----|
C|---------------------------------------------|

Next - riff 2: (0.54) (11's)
F|----------------------------------|
C|----------------------------------|
G|-11-0-11-0-11-0-0-11-0-11-0-11-0--|
C|----------------------------------|

Chorus: (1.04)
F|---------------------------------------------------------------------------------------|
C|---------------------------------------------------------------------------------------|
G|-5-5-575--5-5-5--x4--------------------------------------------------------------------|
C|--0-0----0-0-0-0-----------------------------------------------------------------------|

then:
f|-------------------------------------------------------------------------------------|
c|-----76-76---------------------------------------------------------------------------|
g|-5-5---5----5-5-5--x4----------------------------------------------------------------|
c|--0--------0-0-0---------------------------------------------------------------------|

Next: (1.28)
f|------------------------------------------------------------------------------------|
c|----------54------------------------------------------------------------------------|
g|-5-79-5-5----5-x2-------------------------------------------------------------------|
c|------------------------------------------------------------------------------------|

then: (1.40)
f|-----------------------------------|
D|-----------------9-11-9-11-(11's)--|
g|-4444-4444-444-0-------------------|
c|-----------------------------------|

then: (1.45)
f|-----------------------------------------------------------|
c|-----------------------------------------------------------|
g|-7777-99-777777777777777777777777777777-etc-tremelo-until--|
c|-----------------------------------------------------------|

then:
f|-----------------------------|
c|-14-16-1414\---(14's,-16's)--|
g|-----------------------------|
c|-----------------------------|

Repeat whole sequence but starting on riff 2, dont play verse.

Main riff: (3.05) same as beggining but weird timing. Its same notes but just it jumps 
Listen carefully. Its basically pointless me writing it again
as it only two notes.

then:

F|-------------------/-----------------------------------------------------|
C|-------------------/-----------------------------------------------------|
G|-11-000-11111111-0-/-after-what-i-just-wrote-play-verse-as-normal-a-few--|
C|-------------------/--times-until----------------------------------------|

bridge: (3.38)
F|--------------------------------------------------------------------------------|
C|-8-----x3-----------------------------------------------------------------------|
G|---7-5--------------------------------------------------------------------------|
C|--------------------------------------------------------------------------------|

(3.51)Bridge riff :
F|---------------------------------------------------------------------------------|
C|-----------658-----65--8----65------------65--8----65--8----65--repeat-sequence--|
G|-78-87-75-5---75-5---57-75-5--5-78-87-75-5--57-75-5--57-75-5--5--many-times------|
C|---------------------------------------------------------------------------------|

After playing bridge riff for ages, throughout funny voice stuff, play for final time: (4.44)


F|------------------------------------------------------------------------------|
C|-----------65----(4.50)-------------------------------------------------------|
G|-78-87-75-5--57--7------------------------------------------------------------|
C|----------------8-8-------8--------8-------8----------------------------------|

then: (5.00)
F|---------------------------------------------------------------------|
C|----------------------------------------------------repeat-many------|
G|--------------------------------------------------------times-until--|
C|-8888888888888888-2222222222222222-0000000000000000------------------|

then: (5.25)interupt 00000000000 to play
F|---------------------------------------|
C|---------------------------------------|
G|---------------------------------------|
C|-0000-00-0-0000-00-0-0000-00-0-000-00--|

Tricky outro riff:
F|------------------------------------------------------------------------|
C|---------------------12\-----------------57--------3--------------------|
G|--------13-1313131213-----------------------1(hold)---------------------|
C|-888888------------------2222222-0(hold)------------2(hold)----0(hold)--|

Play that until the end. listen carefully to outro

| /  slide up
| \  slide down
| h  hammer-on
| p  pull-off
| ~  vibrato
| +  harmonic
| x  Mute note
===============================================================================





Comments


Popular Oceansize tabs & chords
Commemorative 911 T-shirt Bass Tabs
The Charm Offensive Bass Tabs
Amputee Tabs
I Am The Morning 1 Tabs
One Day All This Could Be Yours Tabs
Remember Where You Are Tabs
The Strand Tabs
Women Who Love Men Who Love Drugs Tabs
You Wish Tabs
Music For A Nurse Ukulele


Song lyrics



↑ Back to top | Tablatures and chords are parodies/interpretations of the original songs. You may use it for private study, scholarship, research or language learning purposes only
© 2014 AZChords.com Contact us | Privacy policy | DMCA | Add/correct tabs | Request tabs | Top 50 tabs