>
 >
Savant

Savant Bass Tabs

Oceansize - Savant chords, tabs, tablatures, lyrics

Guitar lessons | Add/correct | Request | Top 50 tabs Artists:  A B C D E F G H I J K L M N O P Q R S T U V W X Y Z 0-9

Savant Bass Tabs – Oceansize

CD, Sheet music, Poster

Do you like Savant? Share with your friends now
Bass Tabs
Savant:

Time sig changes in brackets, timings kinda odd
so listen for the changes.

"Future Hate's:

(4/4)
F:-----------------17--16--------------------17--16-------:
C:-15------17--15----------17--15----17--15----------17---:
G:-----15------------------------15-----------------------:  X4
D:--------------------------------------------------------:

"Where I see us":

(3/4)
F:-------------2-----5-----4-----2--4--2-:
C:-2-----4-------------------------------:
G:---------------------------------------:
D:---------------------------------------:

F:----------------------------------0----:
C:-2-----0-----------------------------2-:
G:-------------3-----2-----------2-------:
D:-------------------------3-------------:

F:-------------2-----5-----4-----5--7--9-:
C:-2-----4-------------------------------:
G:---------------------------------------:
D:---------------------------------------:

F:----------------------------------0----:
C:-2-----0-----------------------------2-:
G:-------------3-----2-----------2-------:
D:-------------------------3-------------:

F:-------------2-----5-----4-----2--4--2-:
C:-2-----4-------------------------------:
G:---------------------------------------:
D:---------------------------------------:

F:----------------------------------0----:
C:-2-----0-----------------------------2-:
G:-------------3-----2-----------2-------:
D:-------------------------3-------------:

"Answer":

(3/4)                       (4/4)             
F:--------:--------:--------:-----------------:
C:--------:--------:---0----:-3h5/15-14-------:
G:---3-0--:--------:-----2--:-----------14h15-:
D:-1------:-0------:-3------:-----------------:

  (3/4)     (4/4)       (3/4)             
F:----------:-----------:--------:--------:
C:----------:-----------:---0----:-3------:
G:-12\------:-3-----2h3-:-----2--:--------:
D:----------:---3-1-----:-3------:--------:

(3/4)                       (4/4)             
F:--------:--------:--------:-----------------:
C:--------:--------:---0----:-3h5/15-14-15h17-:
G:---3-0--:--------:-----2--:-----------------:
D:-1------:-0------:-3------:-----------------:

  (3/4)     (4/4)       (3/4)             
F:-14\------:-----------:--------:--------:
C:----------:-----------:---0----:-3------:
G:----------:-3-----2h3-:-----2--:--------:
D:----------:---3-1-----:-3------:--------:

Repeat This with distortion

"Where I see us":

(3/4)
F:-------------2-----5-----4-----2--4--2-:
C:-2-----4-------------------------------:
G:---------------------------------------:
D:---------------------------------------:

F:----------------------------------0----:
C:-2-----0-----------------------------2-:
G:-------------3-----2-----------2-------:
D:-------------------------3-------------:

F:-------------2-----5-----4-----5--7--9-:
C:-2-----4-------------------------------:
G:---------------------------------------:
D:---------------------------------------:

F:----------------------------------0----:
C:-2-----0-----------------------------2-:
G:-------------3-----2-----------2-------:
D:-------------------------3-------------:

F:-------------2-X2-X5-5-X54-44-X42-X442-:
C:-2-----4-------------------------------:
G:---------------------------------------:
D:---------------------------------------:

F:----------------------------------0----:
C:-2-X2-20-X0-0-----------------------2--:
G:-------------3-X3-32-X2-2------2-2-----:
D:-------------------------3-X3-3--------:

"Answer":

(3/4)                       (4/4)             
F:--------:--------:--------:-----------------:
C:--------:--------:---0----:-3h5/15-14-------:
G:---3-0--:--------:-----2--:-----------14h15-:
D:-1------:-0------:-3------:-----------------:

  (3/4)     (4/4)       (3/4)             
F:----------:-----------:--------:--------:
C:----------:-----------:---0----:-3------:
G:-12\------:-3-----2h3-:-----2--:--------:
D:----------:---3-1-----:-3------:--------:

(3/4)                       (4/4)             
F:--------:--------:--------:-----------------:
C:--------:--------:---0----:-3h5/15-14-15h17-:
G:---3-0--:--------:-----2--:-----------------:
D:-1------:-0------:-3------:-----------------:

  (3/4)     (4/4)       (3/4)             
F:-14\------:-----------:--------:--------:
C:----------:-----------:---0----:-3------:
G:----------:-3-----2h3-:-----2--:--------:
D:----------:---3-1-----:-3------:--------:

Repeat, distortion for the whole section this time.

String Coda:

(7/8)
F:----------17-16-------:
C:----17-15-------17-15-:
G:-15-------------------: x16
D:----------------------:

F:----------------------:
C:----17----17\---------:
G:-15----15-------------: 
D:----------------------:

This whole bit's done with Octaver and Delay

Peace Out





Comments


Popular Oceansize tabs & chords
Paper Champion Bass Tabs
The Charm Offensive Bass Tabs
Catalyst Tabs
I Am The Morning Tabs
Music For A Nurse Tabs
New Pin Tabs
Ornament The Last Wrongs Intro Tabs
Ornament/The Last Wrongs Tabs
The Strand Tabs
Music For A Nurse Ukulele


Song lyrics



↑ Back to top | Tablatures and chords are parodies/interpretations of the original songs. You may use it for private study, scholarship, research or language learning purposes only
© 2014 AZChords.com Contact us | Privacy policy | DMCA | Add/correct tabs | Request tabs | Top 50 tabs