» » »

Oceansize, Remember Where You Are Tabs (ver.1)

Artists:  A B C D E F G H I J K L M N O P Q R S T U V W X Y Z # 

Remember Where You Are Tabs (ver.1)

Oceansize Tabs
Rating:
0/5 (0 votes)
Remember Where You Are lessons Tabs too difficult? Try these video lessons and learn fast
                Drum Intro...

E|----------------------------------------------------------|
B|----------------------------------------------------------|
G|---7----------7----------7----------7----------7----------|
D|-----5--5--5----5--5--5----5--5--5----5--5--5-----5--5----|
A|----------------------------------------------------------|
E|----------------------------------------------------------|

E|------------------------------------------------------|
B|------------------------------------------------------|
G|---0-----------0-----------0-----------0--------------|
D|------2--2--2-----2--2--2-----2--2--2-----2--2--2-----| (x2)
A|------------------------------------------------------|
E|------------------------------------------------------|

E|--------10------------10--------|
B|-----8-----8-8-----8-----8-8----|
G|--7-------------7---------------|
D|--------------------------------|
A|--------------------------------|
E|--------------------------------|

E|---------5-------------5-------------5-------------5-------------5-----|
B|------8-----8-8-----8-----8-8-----8-----8-8-----8-----8-8-----8-----8--|
G|---7-------------7-------------7-------------7-------------7-----------|
D|-----------------------------------------------------------------------|
A|-----------------------------------------------------------------------|
E|-----------------------------------------------------------------------|

E|---------1-----------1---3--------3--5--6--|
B|------3----3------3------------3-----------|
G|---2-----------2------------2--------------|
D|-------------------------------------------|
A|-------------------------------------------|
E|-------------------------------------------|

E|--------10------------10--------|
B|-----8-----8-8-----8-----8-8----|
G|--7-------------7---------------|
D|--------------------------------|
A|--------------------------------|
E|--------------------------------|

E|---------5-------------5-------------5-------------5-------------5-----|
B|------8-----8-8-----8-----8-8-----8-----8-8-----8-----8-8-----8-----8--|
G|---7-------------7-------------7-------------7-------------7-----------|
D|-----------------------------------------------------------------------|
A|-----------------------------------------------------------------------|
E|-----------------------------------------------------------------------|

E|---------1-----------1---3--------3--5--6--|
B|------3----3------3------------3-----------|
G|---2-----------2------------2--------------|
D|-------------------------------------------|
A|-------------------------------------------|
E|-------------------------------------------|

E|--------10------------10--------|
B|-----8-----8-8-----8-----8-8----|
G|--7-------------7---------------|
D|--------------------------------|
A|--------------------------------|
E|--------------------------------|

E|---------5-------------5-------------5-------------5-------------5-----|
B|------8-----8-8-----8-----8-8-----8-----8-8-----8-----8-8-----8-----8--|
G|---7-------------7-------------7-------------7-------------7-----------|
D|-----------------------------------------------------------------------|
A|-----------------------------------------------------------------------|
E|-----------------------------------------------------------------------|

E|--------1-----------|
B|-----3-----3--------|
G|--2-----------------|
D|--------------------|
A|--------------------|
E|--------------------|


1.18 - Palm Muted Section

E|-----------------------------------------------------------------------|
B|-----------------------------------------------------------------------|
G|-----------------------------------------------------------------------|
D|-----------------------------------------------------------------------| (x2)
A|-----------------------------------------------------------------------|
E|--3-3-3--1-1-1--2-2-2--3-3-1-1-3-3---3-3-3--1-1-1--2-2-2--3-3-1-1-3-3--|

E|-----------------------------------------------------------------------|
B|-----------------------------------------------------------------------|
G|-----------------------------------------------------------------------|
D|-----------------------------------------------------------------------|
A|---3-3-3---------------3-3-----------3-3-3---------------3-3-----------|
E|---------2-2-2--3-3-3------2-2-3-3---------2-2-2--3-3-3------2-2-3-3---|

E|------------------------------------------------------------------------------|
B|------------------------------------------------------------------------------|
G|---------------------------------------------------------------8--7--5--------|
D|------------------------------------7--7-7---7--7-7---8--8-8------------5--8--|
A|------------------------------------7--7-7---7--7-7---8--8-8------------------|
E|--3-3-3--1-1-1--2-2-2--3-3-1-1-3-3--5--5-5---5--5-5---6--6-6------------------|

It pretty much all repeats again for Verse 2 and another chorus. That's all I have.

Mike Tapia
            

comments powered by Disqus
↑ Back to top | Oceansize Tabs for Remember Where You Are. Lyrics for acoustic guitar and electric guitar. Tablatures and chords are parodies/interpretations of the original songs. You may use it for private study, scholarship, research or language learning purposes only