» » »

Ornament The Last Wrongs Tabs (ver.1)

Artists:  A B C D E F G H I J K L M N O P Q R S T U V W X Y Z # 

Ornament The Last Wrongs Tabs (ver.1)

Oceansize
Rating:
0/5 (0 votes)

Hard to play? Try these video lessons and learn fast.
                Tuning: DADGBe

e|----------------------------|
B|----------------------------|
G|---------4--2---------/5~---|     X3
D|-------3--------------------|
A|-----3---------0------------|
D|---3------------------------|



e|-------------------------|
B|-------------------------|
G|---------7--5------------|
D|------0------------7-----|
A|----0--------------------|
D|--0------------/8--------|

At the end of this bit ^^.

Tremelo
E |-----------------------|
B|--666666666666666-----|
G|-----------------------|
D|-----------------------|
A|-----------------------|
D|-----------------------|

When it starts again, tremelo:


Tremelo:
e|----------------------------|
B|---666666666----555555555-|
G|---------------------------|        
D|---------------------------|
A|---------------------------|
D|---------------------------|

Then:

Tremelo:
e|-------------------------------------------|
B|--666666666---555555555---88888888888---|
G|------------------------------------------|
D|------------------------------------------|
A|------------------------------------------|
D|------------------------------------------|

e|---------------------------------------------------------------------------|
B|--6666666666-------------10 10 10 10 10 10 10 ----66666666666666-888888---|
G|---------------------------------------------------------------------------|
D|---------------------------------------------------------------------------|
A|---------------------------------------------------------------------------|
D|---------------------------------------------------------------------------|


e|--888888888888-----1212121212 ------|
B|-------------------------------------|
G|-------------------------------------|
D|-------------------------------------|
A|-------------------------------------|
D|-------------------------------------|

e|--121212121212----101010101--------------------------|
B|------------------------------11-11-11-11-11-11-11----|
G|-------------------------------------------------------|
D|-------------------------------------------------------|
A|-------------------------------------------------------|
D|-------------------------------------------------------|

The last two lines are repeated until heavy bit.

  


Then                Heavy
e|------------------0-0-0-0-0-0-0---|
B|------------------1-1-1-1-1-1-1---|
G|---------4--2-----2-2-2-2-2-2-2---|  Play twice.
D|-------3----------2-2-2-2-2-2-2---|
A|-----3------------0-0-0-0-0-0-0---|
D|---3------------------------------|

Then

e|----------------0-0-0-----------------5-5-5-5-5----------------|
B|----------------1-1-1-----------------6-6-6-6-6----------------|
G|---------4--2---2-2-2--4-4-4---5-5-5--7-7-7-7-7--1010101010--| 
D|-------3--------2-2-2--4-4-4---5-5-5--7-7-7-7-7--1010101010--|
A|-----3----------0-0-0--2-2-2---3-3-3--5-5-5-5-5--8-8-8-8-8----|
D|---3------------------------------------------------------------|

All repeated.

Then

one guitar plays

e|----------------------------------------|
B|----------------------------------------|
G|--9\--5-7---10~------9------------------|
D|-----------------------10--7--10~-------|
A|----------------------------------------|
D|----------------------------------------|

e|--------------------------------------------|
B|--------------------------------------------|
G|-10--9------7---10~-------12--10--9--9------|
D|--------10----------------------------------|
A|--------------------------------------------|
D|--------------------------------------------|

Repeated until this is played again

e|------------------0-0-0-0-0-0-0---|
B|------------------1-1-1-1-1-1-1---|
G|---------4--2-----2-2-2-2-2-2-2---|  Play twice.
D|-------3----------2-2-2-2-2-2-2---|
A|-----3------------0-0-0-0-0-0-0---|
D|---3------------------------------|

Then

e|----------------0-0-0-----------------5-5-5-5-5----------------|
B|----------------1-1-1-----------------6-6-6-6-6----------------|
G|---------4--2---2-2-2--4-4-4---5-5-5--7-7-7-7-7--1010101010--| 
D|-------3--------2-2-2--4-4-4---5-5-5--7-7-7-7-7--1010101010--|
A|-----3----------0-0-0--2-2-2---3-3-3--5-5-5-5-5--8-8-8-8-8----|
D|---3------------------------------------------------------------|


Last bit

e|-------------------------------------|
B|-------------------------------------|
G|--7~---------------------------------|
D|--7~----10--7-----8~-----7--3--------|
A|--5~----10--7-----8~-----7--3--------|
D|--------10--7-----8~-----7--3--------|

e|-------------------------------------|
B|-------------------------------------|
G|--7~---------------------------------|
D|--7~----10--7-----8~-----7--10------|
A|--5~----10--7-----8~-----7--10------|
D|--------10--7-----8~-----7--10------|

e|-------------------|
B|-------------------|
G|--7---9--10--10---|
D|--7---9--10--10---|
A|--5---7---8---8---|
E|------------------|


High guitar bit.
Sounds something like this:

e|----------------------------8------8------6-----5-------|
B|--------10------10-----------10----10------6----6-6----|
G|-10-h12---10-h12---10-h12-----10----10----------7-----|
D|--------------------------------------------------------|
A|--------------------------------------------------------|
E|--------------------------------------------------------|

e|--6----6-----5----5-------|
B|---6----6-----6----6-6----|
G|----7----7----------5-----|
D|--------------------------|
A|--------------------------|
E|--------------------------|


Play till end with heavy bit. 
            
Hard to play? Try these video lessons and learn fast. | Correct




comments powered by Disqus
↑ Back to top | Tablatures and chords are parodies/interpretations of the original songs. You may use it for private study, scholarship, research or language learning purposes only