» » »

Oceansize, Only Twin Bass tabs (ver.1)

Artists:  A B C D E F G H I J K L M N O P Q R S T U V W X Y Z # 

Only Twin Bass tabs (ver.1)

Oceansize Tabs
 Rating:
4/5 (4 votes)
Only Twin lessons Tabs too difficult? Try these video lessons and learn fast
                
Right, I honestly don't know the proper timing for this.
I've done it how I count it, I prefer to have chord changes 
at the start of a bar,
so the time sigs may be completely wrong, but it works.

"Run Tommy Run...":

 (3/4)           (4/4)  (2/4)
F:--------------:------:----:
C:--------------:------:----:
G:--------------:------:----:
C:-9------------:-8----:-7--:

 (3/4)           (4/4)  (2/4)(3/4)    (4/4)
F:--------------:------:----:--------:------:
C:--------------:------:----:--------:------:
G:--------------:------:----:--------:------:
C:-5------------:-7----:-8--:--------:------:

Play this 3 times

Then:

 (4/4)                       (4/4)  (2/4)
F:-----7-----------7--------:------:-----:
C:---9---9-----9-------9----:------:-7\--:
G:--------------------------:------:-----:
C:-9-------9----------------:-8----:-----:

 (4/4)                       (4/4)  (2/4)(3/4)    (4/4)
F:-----7-----------7--------:------:----:--------:------:
C:---5---5-----5-------5----:------:----:--------:------:
G:--------------------------:------:----:--------:------:
C:-5-------5----------------:-7----:-8--:--------:------:

Repeat This

"Trawled Through All This Before..."

 (4/4)                                         (2/4)
F:-----------------0---2-3-0-------------------:----:
C:-------0-4---2-4-------------4-2-------------:----:
G:-2---4---------------------------4---5-4-1---:----:
C:---------------------------------------------:----:

Repeat This

 (4/4)                  (2/4)            
F:----------------------:----:
C:----------------------:----:
G:-2---2---2---4---2----:-1--:
C:----------------------:----:

"That Kiss is not..."

 (3/4)                            
F:-----6-----6--:
C:---5-----5----: x4
G:--------------:
C:-5-----5------:

F:--------------:
C:---8-7---8-7--: x4
G:--------------:
C:-8-----8------:

Play This 6 Times

"Arm's Length...":

  (4/4)                     (2/4)
F:--------------:----------:------:
C:--------------:----------:------:
G:--------------:----------:------:
C:-0-0-0-0-0-0--:-88888888-:-7777-:
  
  (4/4)
F:-----------------:----------:------------------:
C:---5---5h75---5--:-----7----:---------8-----8--:
G:-----------------:----------:------------------:
C:-5----5------5-5-:-7--------:-8-----8------8-8-:

 (4/4)                       (4/4)  (2/4)
F:-----7-----------7--------:------:-----:
C:---9---9-----9-------9----:------:-7\--:
G:--------------------------:------:-----:
C:-9-------9----------------:-8----:-----:

F:-----------------:----------:-----------:
C:---5---5h75---5--:-----7----:-----8-----:
G:-----------------:----------:-----------:
C:-5----5------5-5-:-7--------:-8---------:

"One and four..."

  (4/4)                                   (2/4)
F:--------------------------:----------:------:
C:--------------------------:----------:------:
G:-----5-------5-------5----:----------:------:
C:-0000-0000000-0000000-000-:-88888888-:-7777-:
  
  (4/4)
F:-----------------:----------:------------------:
C:---5---5h75---5--:-----7----:---------8-----8--:
G:-----------------:----------:------------------:
C:-5----5------5-5-:-7--------:-8-----8------8-8-:

 (4/4)                       (4/4)  (2/4)
F:-----7-----------7--------:------:-----:
C:---9---9-----9-------9----:------:-7\--:
G:--------------------------:------:-----:
C:-9-------9----------------:-8----:-----:

F:-----------------:----------:-----------:
C:---5---5h75---5--:-----7----:-----8-----:
G:-----------------:----------:-----------:
C:-5----5------5-5-:-7--------:-8---------:

"I recoil..."

  (4/4)                                   (2/4)
F:-----------------------------:----------:------:
C:-----------------------------:----------:------:
G:-----5--------5--------5-----:----------:------:
C:-0000-00000000-00000000-0000-:-88888888-:-7777-:
  
  (4/4)
F:-----------------:----------:------------------:
C:---5---5h75---5--:-----7----:---------8-----8--:
G:-----------------:----------:------------------:
C:-5----5------5-5-:-7--------:-8-----8------8-8-:

Outro:

 (3/4)           (4/4)  (2/4)
F:--------------:------:----:
C:-9------------:-8----:-7--:
G:--------------:------:----:
C:--------------:------:----:

 (3/4)           (4/4)  (2/4)(3/4)    (4/4)
F:--------------:------:----:--------:------:
C:-5------------:-7----:-8--:--------:------:
G:--------------:------:----:--------:------:
C:--------------:------:----:--------:------:

Repeat this

End on:

F:-------:
C:-9\----:
G:-------:
C:-------:

Peace Out
            
Submit corrections

comments powered by Disqus
↑ Back to top | Oceansize Bass for Only Twin. Lyrics for acoustic guitar and electric guitar. Tablatures and chords are parodies/interpretations of the original songs. You may use it for private study, scholarship, research or language learning purposes only