>
 >
One Day All This Could Be Yours

One Day All This Could Be Yours Guitar Tabs

Oceansize - One Day All This Could Be Yours chords, tabs, tablatures, lyrics

Guitar lessons | Add/correct | Request | Top 50 tabs Artists:  A B C D E F G H I J K L M N O P Q R S T U V W X Y Z 0-9

One Day All This Could Be Yours Guitar Tabs – Oceansize

CD, Sheet music, Poster

Do you like One Day All This Could Be Yours? Share with your friends now
Tabs
Intro
A (GTR 1 repeat twice)
--12-------13--12---|--12-------15--13---|--12-------13--12----|--12-------15--13---|
-----12-------------|-----12-------------|-----12--------------|-----12-------------|
--------------------|--------------------|---------------------|--------------------|
--------------------|--------------------|---------------------|--------------------|
--------------------|--------------------|---------------------|--------------------|
--------------------|--------------------|---------------------|--------------------|
B (GTR 1 repeat twice)
      b  b  b  b  b        b  b  b  b  b        b  b  b  b  b        b  b  b  b  b
--------------------|--------------------|---------------------|--------------------|
--11----------------|--10----------------|--11-----------------|--10----------------|
--------------------|--------------------|---------------------|--------------------|
--------------------|--------------------|---------------------|--------------------|
--------------------|--------------------|---------------------|--------------------|
--------------------|--------------------|---------------------|--------------------|
C (GTR 2)
---------------12---|---------------12---|---------------12----|----------------12---|
------------------12|-----------------13-|------------------12-|------------------13-|
----------9p10------|----------9p10------|----------9p10-------|----------9p10-------|
-----9p10-----------|-----9p10-----------|-----9p10------------|-----9p-10-----------|
-7p8----------------|-7p8----------------|-7p8-----------------|-7p8-----------------|
--------------------|--------------------|---------------------|---------------------|

Verse
A (GTR 1 repeat x 4)
--------------------|--------------------|---------------------|---------------------|
-12-12-12-12-12-12--|-13-13-13-13-13-13--|-10-10-10-10-10-10-10|-9-9-9-9-15-15-15-15-|
--------------------|--------------------|---------------------|---------------------|
--------------------|--------------------|---------------------|---------------------|
--------------------|--------------------|---------------------|---------------------|
--------------------|--------------------|---------------------|---------------------|
B (GTR 2 on 3rd repitition, repeat x 2)
---------------12-12|---------------12---|----------------12---|--------------------|
--------------------|------------------13|-------------------10|--------------------|
--------------------|--------------------|---------------------|-----------------10-|
--------------------|--------------------|---------------------|------------9-10----|
--------------------|--------------------|---------------------|--------------------|
--------------------|--------------------|---------------------|--------------------|
C (GTR 2)
---------------12---|---------------12---|---------------12----|---------------12---|
------------------12|-----------------13-|------------------12-|-----------------13-|
----------9P10------|----------9P10------|----------9P10-------|----------9P10------|
-----9P10-----------|-----9P10-----------|-----9P10------------|-----9P10-----------|
-7P8----------------|-7P8----------------|-7P8-----------------|-7P8----------------|
--------------------|--------------------|---------------------|--------------------|

Verse 2
A (GTR 1 repeat x 2)
--------------------|--------------------|---------------------|---------------------|
-12-12-12-12-12-12--|-13-13-13-13-13-13--|-10-10-10-10-10-10-10|-9-9-9-9-15-15-15-15-|
--------------------|--------------------|---------------------|---------------------|
--------------------|--------------------|---------------------|---------------------|
--------------------|--------------------|---------------------|---------------------|
--------------------|--------------------|---------------------|---------------------|
B (GTR 2 repeat x 2)
---------------12---|---------------12---|----------------12---|--------------------|
------------------12|------------------13|-------------------10|--------------------|
--------------------|--------------------|---------------------|-----------------10-|
--------------------|--------------------|---------------------|------------9-10----|
--------------------|--------------------|---------------------|--------------------|
--------------------|--------------------|---------------------|--------------------|

Chorus
A (GTR 1 repeat x 2)
--------------------|--------------------|---------------------|---------------------|
-12-12-12-12-12-12--|-13-13-13-13-13-13--|-10-10-10-10-10-10-10|-9-9-9-9-15-15-15-15-|
--------------------|--------------------|---------------------|---------------------|
--------------------|--------------------|---------------------|---------------------|
--------------------|--------------------|---------------------|---------------------|
--------------------|--------------------|---------------------|---------------------|
B (GTR 2 repeat x 2)
---------------12---|---------------12---|----------------12---|--------------------|
------------------12|------------------13|-------------------12|--------------------|
--------------------|--------------------|---------------------|-----------------10-|
--------------------|--------------------|---------------------|------------9-10----|
--------------------|--------------------|---------------------|--------------------|
--------------------|--------------------|---------------------|--------------------|
C (GTR 3 repeat x 2)
--------------------|--------------------|---------------------|--------------------|
--------------------|--------------------|---------------------|--------------------|
--------------------|--------------------|---------------------|--------------------|
--------------------|--------------------|---------------------|--------------------|
--------------0-----|-------------0------|-------------0-------|-------------0------|
-3-2-2-2-3-5----2-2-|-3-2-2-2-3-5----2-2-|-3-2-2-2-3-5----2-2--|-3-2-2-2-3-5----2-2-|

Part 3
A (GTR 3 & GTR 1 repeat x 5)
--------------------|--------------------|---------------------|--------------------|
--------------------|--------------------|---------------------|--------------------|
--------------------|--------------------|---------------------|--------------------|
--------------------|--------------------|---------------------|--------------------|
--------------0-----|-------------0------|-------------0-------|-------------0------|
-3-2-2-2-3-5----2-2-|-3-2-2-2-3-5----2-2-|-3-2-2-2-3-5----2-2--|-3-2-2-2-3-5----2-2-|
B (GTR 2 on 2nd repitition) Shread like a bastard
--------------------|--------------------|---------------------|--------------------|
--------------------|--------------------|---------------------|--------------------|
--9-9-9-9-9-9-9-9-9-|--9-9-9-9-9-9-9-9-9-|--9-9-9-9-9-9-9-9-9--|--9-9-9-9-9-9-9-9-9-|
--9-9-9-9-9-9-9-9-9-|--7-7-7-7-7-7-7-7-7-|--101010101010101010-|--6-6-6-6-6-6-6-6-6-|
--------------------|--------------------|---------------------|--------------------|
--------------------|--------------------|---------------------|--------------------|

--------------------|--------------------|---------------------|---------------------|
--------------------|--------------------|---------------------|---------------------|
--9-9-9-9-9-9-9-9-9-|--9-9-9-9-9-9-9-9-9-|--9-9-9-9-9-9-9-9-9--|--9-9-9-9-9-19-19-19-|
--9-9-9-9-9-9-9-9-9-|--7-7-7-7-7-7-7-7-7-|--101010101010101010-|--6-6-6-6-6----------|
--------------------|--------------------|---------------------|---------------------|
--------------------|--------------------|---------------------|---------------------|

--------------------|--------------------|---------------------|---------------------|
--------------------|--------------------|---------------------|---------------------|
16-16-16-16-16-16-16|17-17-17-17-17-17-17|14-14-14-14-14-14-14-|13-13-13-13-19-19-19-|
14-14-14-14-14-14-14|14-14-14-14-14-14-14|14-14-14-14-14-14-14-|14-14-14-14-14-14-14-|
--------------------|--------------------|---------------------|---------------------|
--------------------|--------------------|---------------------|---------------------|

--------------------|--------------------|---------------------|---------------------|
--------------------|--------------------|---------------------|---------------------|
16-16-16-16-16-16-16|17-17-17-17-17-17-17|14-14-14-14-14-14-14-|13-13-13-13-13-13-13-|
14-14-14-14-14-14-14|14-14-14-14-14-14-14|14-14-14-14-14-14-14-|14-14-14-14-14-14-14-|
--------------------|--------------------|---------------------|---------------------|
--------------------|--------------------|---------------------|---------------------|

BIT BEFORE BIT BEFORE OUTRO
A (GTR 3 & GTR 1 repeat x 2)
--------------------|--------------------|---------------------|--------------------|
--------------------|--------------------|---------------------|--------------------|
--------------------|--------------------|---------------------|--------------------|
--------------------|--------------------|---------------------|--------------------|
---------------0----|---------------0----|---------------0-----|---------------0----|
-2-2-2-3-2-3-5------|-2-2-2-3-2-3-5------|-2-2-2-3-2-3-5-------|-2-2-2-3-2-3-5------|
B (GTR 2)
--------------------|--------------------|---------------------|--------------------|
--------------------|--------------------|---------------------|--------------------|
--------------------|--------------------|---------------------|--------------------|
--------------------|--------------------|---------------------|--------------------|
---------------0----|---------------0----|---------------0-----|---------------0----|
-2-2-2-3-2-3-5------|-2-2-2-3-2-3-5------|-2-2-2-3-2-3-5-------|-2-2-2-3-2-3-5------|

--------------------|--------------------|---------------------|--------------------|
--------------------|--------------------|---------------------|--------------------|
--------------------|--------------------|---------------------|--------------------|
----------------9---|----------------9---|----------------9----|----------------9---|
-7-7-7-8-7-8-10-----|-7-7-7-8-7-8-10-----|-7-7-7-8-7-8-10------|-7-7-7-8-7-8-10-----|
--------------------|--------------------|---------------------|--------------------|

BIT BEFORE OUTRO
A (GTR 3 & GTR 1 repeat x 2)
--------------------|--------------------|---------------------|--------------------|
--------------------|--------------------|---------------------|--------------------|
--------------------|--------------------|---------------------|--------------------|
--------------------|--------------------|---------------------|--------------------|
--------------------|--------------------|---------------------|--------------------|
2--2--3--2--3--5----|2--2--3--2--3--5----|2--2--3--2--3--5-----|2--2--3--2--3--5----|
B (GTR 2)
--------------------|--------------------|---------------------|--------------------|
--------------------|--------------------|---------------------|--------------------|
--------------------|--------------------|---------------------|--------------------|
--------------------|--------------------|---------------------|--------------------|
7--7--8--7--8--10---|7--7--8--7--8--10---|7--7--8--7--8--10----|7--7--8--7--8--10---|
--------------------|--------------------|---------------------|--------------------|

--------------------|--------------------|---------------------|--------------------|
--------------------|--------------------|---------------------|--------------------|
--------------------|--------------------|---------------------|--------------------|
--------------------|--------------------|---------------------|--------------------|
--------------------|--------------------|---------------------|--------------------|
2--2--3--2--3--5----|2--2--3--2--3--5----|2--2--3--2--3--5-----|2--2--3--2--3--5----|


OUTRO
(GTR 1)
--12-------13--12---|--12-------15--13---|--12-------13--12----|--12-------15--13---|
-----12-------------|-----12-------------|-----12--------------|-----12-------------|
--------------------|--------------------|---------------------|--------------------|
--------------------|--------------------|---------------------|--------------------|
--------------------|--------------------|---------------------|--------------------|
--------------------|--------------------|---------------------|--------------------|





Comments


Popular Oceansize tabs & chords
I Am The Morning Bass Tabs
The Charm Offensive Bass Tabs
Unfamiliar 2 Bass Tabs
Music For A Nurse Chords
Catalyst Tabs
I Am The Morning Tabs
Music For A Nurse Intro Tabs
Pine Tabs
Remember Where You Are Tabs
The Strand Tabs


Song lyrics



↑ Back to top | Tablatures and chords are parodies/interpretations of the original songs. You may use it for private study, scholarship, research or language learning purposes only
© 2014 AZChords.com Contact us | Privacy policy | DMCA | Add/correct tabs | Request tabs | Top 50 tabs