>
 >
I Am The Morning

I Am The Morning Guitar Tabs

Oceansize - I Am The Morning chords, tabs, tablatures, lyrics

Guitar lessons | Add/correct | Request | Top 50 tabs Artists:  A B C D E F G H I J K L M N O P Q R S T U V W X Y Z 0-9

I Am The Morning Guitar Tabs – Oceansize

CD, Sheet music, Poster

Do you like I Am The Morning? Share with your friends now
Bass TabsTabsTabs v2
-------------------------------------------------------------------------------
-------------------------------------------------------------------------------


Tuning: Standard
Riff 1
E|--------------------------------------------------------------------------|
B|-----------5b6r5-------8--------3-----------5b6r5-----8-------3-----------|
G|--------5-------5-------------------------5------5------------------------|
D|-----5---------------8--------3---------5-----------8-------3-------------|
A|--3----------------6--------1---------3------------6------1---------------|
E|--------------------------------------------------------------------------|

E|--------------------------------------|
B|-----------4------------------5-------|
G|--------------5------------------5----|
D|--------6--------6---------7----------|
A|-----6------------------7-------------|
E|--4------------------5----------------|

Third time:


E|---------------------------------------------------5~----------------------|
B|-----------5b6r5-------8--------3-----------6------6~----------------------|
G|--------5-------5-------------------------7---7----7~----------------------|
D|-----5---------------8--------3---------7-------8--------------------------|
A|--3----------------6--------1---------5------------------------------------|
E|---------------------------------------------------------------------------|

Than Riff 1 is being played again while the other guitar plays this riff:


e|--8-10-12~~---15~--13~--8-10-12~~--15~-—13~---11-10-8~--8-8-8h10p8~--------|
B|---------------------------------------------------------------------------|
G|---------------------------------------------------------------------------| 
D|---------------------------------------------------------------------------|
A|---------------------------------------------------------------------------|
E|---------------------------------------------------------------------------|

e|--8-10-12~~---15~--13~--8-10-12~~--15~-—13~---11-10-8~--8-8-8h10p8~--8h10p8|
B|---------------------------------------------------------------------------|
G|---------------------------------------------------------------------------| 
D|---------------------------------------------------------------------------|
A|---------------------------------------------------------------------------|
E|---------------------------------------------------------------------------|

After the second time you play everything with the new riff a distorted Dm chord enters

Heavy part:
e|-----------------------------------------|
B|-----------------------------------------|
G|--------5-------5----------8----------3--|
D|----2-2------2-----------5-----------0---|
A|--3------3-3--------6----------1-1-------|
E|-----------------------------------------|




e|---------------------------------------------------------------------------|
B|------------------------------------------9~~------------------------------|
G|-------5-------5----------8----------3-------------------------------------|
D|---2-2------2-----------5-----------0-----6~~--7-7--7-7--7-7--7-7--7-7-7-7-|
A|-3------3-3--------6----------1-1--------------7-7--7-7--7-7--7-7--7-7-7-7-|
E|-----------------------------------------------5-5--5-5--5-5—-5-5--5-5-5-5-|

e|-----------------------------------------|
B|-----------------------------------------|
G|--------5-------5----------8----------3--|
D|----2-2------2-----------5-----------0---|
A|--3------3-3--------6----------1-1-------|
E|-----------------------------------------|

e|-----------------------------------------------------------------------------------------|
B|----------------------------------------------------------------------------5---5--------|
G|-------5-------5----------8----------3--------------------------------------7b9-7b9-7-5--|
D|---2-2------2-----------5-----------0---6-6-6-6-6-6-6-6-6-6-6-6-7-7-7-7-7-7--------------|
A|-3------3-3--------6----------1-1-------6-6-6-6-6-6-6-6-6-6-6-6-7-7-7-7-7-7--------------|
E|----------------------------------------4-4-4-4-4-4-4-4-4-4-4-4-5-5-5-5-5-5--------------|

And back to the original riff…
I didn't tab the second part because it's too obscure, it's nothing too hard, but nothing that 
You HAVE to know in order to play the song…

for suggestions/questions/spam/viruses:





Comments


Popular Oceansize tabs & chords
Only Twin Bass Tabs
Savant Bass Tabs
Unfamiliar 2 Bass Tabs
Commemorative 9 11 T-shirt Tabs
New Pin Tabs
Ornament/The Last Wrongs Tabs
Part Cardiac Tabs
Remember Where You Are Tabs
Superimposer Tabs
Women Who Love Men Who Love Drugs Tabs


Song lyrics



↑ Back to top | Tablatures and chords are parodies/interpretations of the original songs. You may use it for private study, scholarship, research or language learning purposes only
© 2014 AZChords.com Contact us | Privacy policy | DMCA | Add/correct tabs | Request tabs | Top 50 tabs