>
 >
As The Smoke Clears

As The Smoke Clears Guitar Tabs

Oceansize - As The Smoke Clears chords, tabs, tablatures, lyrics

Guitar lessons | Add/correct | Request | Top 50 tabs Artists:  A B C D E F G H I J K L M N O P Q R S T U V W X Y Z 0-9

As The Smoke Clears Guitar Tabs – Oceansize

CD, Sheet music, Poster

Do you like As The Smoke Clears? Share with your friends now
Tabs
D |---------------------------------------------------------|
A |----------10-------------8------------10------------8----|
F |---------------------------------------------------------|
C |--0---0----------0---0--------0---0---------0---0--------|
G |--0---0----------0---0--------0---0---------0---0--------|
c |--0---0----------0---0--------0---0---------0---0--------|


D |----------------------------------------------------------------------------------------------|
A |-------------------------------------------------------------------------------------6--------|
F |----------10------------9------------10------------9---------------------------------7--------|
C |--0---0---10----0---0---9----0---0---10----0---0---9----0----0----0---0-0-0-0---0-------------|
G |--0---0---------0---0--------0---0---------0---0--------0----0----0---0-0-0-0---0----5--------|
C |--0---0---------0---0--------0---0---------0---0--------0----0----0---0-0-0-0---0-------------|


1:17 - Speak...  (light tremelo part)

D |-------------------------------------------------------------------------------------|
A |---10----8----6-------10----8----6-------13----11----10-------13----11----10---------|
F |-------------------------------------------------------------------------------------|
C |-------------------------------------------------------------------------------------|
G |-------------------------------------------------------------------------------------|
C |-------------------------------------------------------------------------------------|

1:54 - Breathe... (i think the notes are doubled on the F string but its quite hard to 
- i'll put them in anyway)

D |---------------------------------------------------|
A |------10/6--------8/5-------10/6--------8/5--------|
F |-------9/5--------7/4--------9/5--------7/4--------|
C |--7-----------7---------7-----------7--------------|
G |--5-----------5---------5-----------5--------------|
C |---------------------------------------------------|

The timing here is quite tricky...so learn it!


D |---------------------------------------------------------------------|
A |---------------------------------------------------------------------|
F |------------------------------------------------------9-7------------|
C |--7/10--------8---7-------7----8-7-----7-8---10-8-7-------10--7-8----|
G |--------7/10--------10--8----------8-7-------------------------------|
C |---------------------------------------------------------------------|


2:43 - same as 1:54

3:09

D |---------------------------------------------------------------------------------------------------|
A |---------------------------------------------------------------------------------------------------|
F |--7-7-7-7-8-8-8-8-10-10-10-10-12-12-12-12-14-14-14-14-15-15-15-15---7---7---7--7----7---7---7--7---|
C |--x-x-x-x-x-x-x-x-x--x--x--x--x--x--x--x--x--x--x--x--x--x--x--x----7---7---7--7----7---7---7--7---|
G |--5-5-5-5-7-7-7-7-8--8--8--8--10-10-10-10-12-12-12-12-13-13-13-13---5---5---5--5----5---5---5--5---|
C |---------------------------------------------------------------------------------------------------|

3:36 - (x4 - first two times 2nd guitar plays the first light tremelo part at 1:17)

D |-----------------------------------------------------|
A |-----------------------------------------------------|
F |-----------------------------------------------------|
C |--7---5---9--7--3---5--7--10---3---5--7---10-10-10---|
G |--5---3---7--5--1---3--5--8----1---3--5---8--8--8----|
C |-----------------------------------------------------|

4:09 - same as 1:54 but much heavier

4:21 - same as 3:09 but the second half of C chords is twice as long

next section, meh, can't hear it very well but play this *VVV* and then play the first 
again

D |------------------------------------------------------------------------------------------------------|
A |-10--11-10-8-6--10--11-10-8---------------------------5--6-5-3-1--5--6-5-3-1--------------------------|
F |------------------------------------------------------------------------------------------------------|
C |----------------------------0--0--0--0---0--0--0--0--------------------------0--0--0--0---0--0--0--0--|
G |----------------------------0--0--0--0---0--0--0--0--------------------------0--0--0--0---0--0--0--0--|
C |----------------------------0--0--0--0---0--0--0--0--------------------------0--0--0--0---0--0--0--0--|


5:13

D |------------------------------------------------------------------------|
A |------------------------------------------------------------------------|
F |--8-8-8-8-10-10-10-12-12-12-14-----8-8-8-8-10-10-10-12-12-12-15---------|
C |--x-x-x-x-x--x--x--x--x--x--x------x-x-x-x-x--x--x--x--x--x--x----------|
G |--6-6-6-6-8--8--8--10-10-10-12-----6-6-6-6-8--8--8--10-10-10-13---------|
C |------------------------------------------------------------------------|


D |--------------------------------------------------------|
A |--------------------------------------------------------|
F |----------10------------9------------10------------9----|
C |--0---0---10----0---0---9----0---0---10----0---0---9----|
G |--0---0---------0---0--------0---0---------0---0--------|
C |--0---0---------0---0--------0---0---------0---0--------|

D |----------------------------------------------------------------------------------------------------------|
A |-------------------------------------------------------------------------------------------------6--------|
F |----------10---------------9---------------10---------------9------------------------------------7--------|
C |--0---0---10-------0---0---9-------0---0---10-------0---0---9-------0----0----0---0-0-0-0---0----7--------|
G |--0---0------------0---0-----------0---0------------0---0-----------0----0----0---0-0-0-0---0----5--------|
C |--0---0------------0---0-----------0---0------------0---0-----------0----0----0---0-0-0-0---0-------------|

Mike Tapia





Comments


Popular Oceansize tabs & chords
Commemorative 911 T-shirt Bass Tabs
I Am The Morning Bass Tabs
Only Twin Bass Tabs
Unfamiliar Bass Tabs
Meredith Chords
I Am The Morning Tabs
Music For A Nurse Tabs
One Day All This Could Be Yours Tabs
Remember Where You Are Tabs
Women Who Love Men Who Love Drugs Tabs


Song lyrics



↑ Back to top | Tablatures and chords are parodies/interpretations of the original songs. You may use it for private study, scholarship, research or language learning purposes only
© 2014 AZChords.com Contact us | Privacy policy | DMCA | Add/correct tabs | Request tabs | Top 50 tabs