» » »

Oceano, With Legions Tabs (ver.1)

Artists:  A B C D E F G H I J K L M N O P Q R S T U V W X Y Z # 

With Legions Tabs (ver.1)

Oceano Tabs
 Rating:
4/5 (5 votes)
With Legions lessons Tabs too difficult? Try these video lessons and learn fast
                (Intro)
Drop A

|-----------------|
|-----------------|
|-----------------|
|-1---0~--1---0~--|    2x
|-1---0~--1---0~--|
|-1---0~--1---0~--|

|------------------------------------------|
|------------------------------------------|
|------------------------------------------|    2x
|-----1------0--------------------1------0-|
|---1------0--------------------1------0---|
|-1------0------7h8p7-5-4-1-0-1------0-----|

|---------------------------------|
|---------------------------------|
|---------------------------------|
|---------------------------------|   4x
|-000-0-000-0-000-000-0-000-0-000-|
|-111-1-111-1-111-111-1-111-1-111-|

|---------------------------|
|---------------------------|
|---------------------------|     4x
|---------------------------|
|-000-0-000-0-000-0-000-0---|
|-111-1-111-1-111-1-111-1-0-|

|---------------------------------|
|---------------------------------|
|---------------------------------|
|-------3-------3-2-----2---------|    4x
|-2-1-0-2-2-1-0-2-1-1-0-1-1-0-0-0-|
|-3-2-1---3-2-1-----2-1---2-1-0-1-|

|------------------------------------------|
|------------------------------------------|
|------------------------------------------|
|-0000000000000000-00000000000-0000-000000-|    2x
|-5555555555555555-5/666666666-3333-3/6666-|
|------------------------------------------|

and then the part after is 4 layered guitar parts; the above section played over and over,
one I don't know, and the following two parts:

|-------------------------------------------|
|------------11---------------11-----11-----|
|-----14---------14~-----14-------14----14~-|
|-10-----10----------10-----10--------------|
|-------------------------------------------|
|-------------------------------------------|

|----------------------------------------------|
|----------------------------------------------|
|----------------------------------------------|
|----------------------------------------------|
|-0000-000-00-0-0-0-0-0--0000-000-00-0-0-0-0-0-|
|-0000-000-00-0-0-0-0-0--0000-000-00-0-0-0-0-0-|

That's all I've got so far, I'll probably have the rest soon
            
Submit corrections

comments powered by Disqus
↑ Back to top | Oceano Tabs for With Legions. Lyrics for acoustic guitar and electric guitar. Tablatures and chords are parodies/interpretations of the original songs. You may use it for private study, scholarship, research or language learning purposes only