» » »

Oceano, Inhuman Affliction Tabs (ver.1)

Artists:  A B C D E F G H I J K L M N O P Q R S T U V W X Y Z # 

Inhuman Affliction Tabs (ver.1)

Oceano Tabs
 Rating:
4/5 (5 votes)
Inhuman Affliction lessons Tabs too difficult? Try these video lessons and learn fast
1
                |---------------------------------|
|---------------------------------|
|---------------------------------|
|-7-----9-8-------7-----9-8-------|   4x
|-4-0-0-6-5-0-0-0-4-0-0-6-5-0-0-0-|
|-4-1-1-6-5-1-1-1-4-1-1-6-5-1-1-1-|

tremolo pick single notes
|----------------------------------|
|----------------------------------|
|----------------------------------|
|----------------------------------|  4x
|-1-2-1----3-------2-------2-1-----|
|-2-3-2--3---6-2-5---5-2-5-----2-1-|

Gtr.1 and 2 switch off
|---------------------|
|---------------------|
|---------------------|
|---------------------|
|---------------------|
|-0000-0000-0000-0000-|

|-----------------------|
|-----------------------|
|-----------------------|
|-----------------------|   4x
|-0000-0000-0-0--0000-0-|
|-1111-1111-1-1--1111-1-|

|-------------------------------|
|-------------------------------|
|-------------------------------|
|-------------------------------|  2x
|-7-8--------------3------------|
|-----7-4-4-4-0-3-----4-3-3-3-0-|

|-------------------------------------------------|
|-------------------------------------------------|
|-14-14-14-15-15-15-18-18-18-17-17-17-17-17-17-17-|
|-------------------------------------------------|
|-------------------------------------------------|
|-------------------------------------------------|

|-------------------------------|
|-------------------------------|
|-17-18-17-10-10-10-9-9-9-9-9-9-|
|-------------------------------|
|-------------------------------|
|-------------------------------|

|-------------------------------------------------|
|-------------------------------------------------|
|-14-14-14-15-15-15-18-18-18-17-17-17-17-17-17-17-|
|-------------------------------------------------|
|-------------------------------------------------|
|-------------------------------------------------|

|-----------------------------------------|
|-----------18-18-18-17-17-17-17-17-17-17-|
|-17-18-17--------------------------------|   2x
|-----------------------------------------|
|-----------------------------------------|
|-----------------------------------------|

tremolo pick single notes
|----------------------------------|
|----------------------------------|
|----------------------------------|
|----------------------------------|  4x
|-1-2-1----3-------2-------2-1-----|
|-2-3-2--3---6-2-5---5-2-5-----2-1-|

|----------------------------------------------------------|
|----------------------------------------------------------|
|----------------------------------------------------------|
|------------------333-222------------------8--8--8--7-7-7-|   4x
|------------------555-444------------------10-10-10-8-8-8-|
|-0000000000000000---------0000000000000000----------------|

|-------|
|-------|
|-------|
|-0~----|
|-0~----|
|-0~----|

|-----------------|
|-----------------|
|-----------------|
|-----------------|  a bunch of times
|-2-1-4-2-1-5-2-1-|
|-3-2-5-3-2-6-3-2-|
            
Submit corrections

comments powered by Disqus
↑ Back to top | Oceano Tabs for Inhuman Affliction. Lyrics for acoustic guitar and electric guitar. 1 Tablatures and chords are parodies/interpretations of the original songs. You may use it for private study, scholarship, research or language learning purposes only