» » »

Ocean Colour Scene, Up On The Downside Bass tabs (ver.1)

Artists:  A B C D E F G H I J K L M N O P Q R S T U V W X Y Z # 

Up On The Downside Bass tabs (ver.1)

Ocean Colour Scene Tabs
 Rating:
4/5 (4 votes)
Up On The Downside lessons Tabs too difficult? Try these video lessons and learn fast
                Standard EADG tuning

Intro

G-----------------|
D-9-7-------------|
A-----10-9-7------|
E------------10-9-|

Verse

G-------9-----------------------------------|
D---------7--7-7---7-5-----4---7------9-----|
A-7-7------------7-----5-5--------------7-7-|
E--------------------------------7--7-------|

Chorus

G-------------------------------------|
D-------------------------------------|
A----------------4--5---4-3-2---------|
E-0----0-5---0-5----------------0-2-3-|

Note: In verse various endings are used , e.g 2 extra high B's rather than
      the 2 high E's.
            
Submit corrections

comments powered by Disqus
↑ Back to top | Ocean Colour Scene Bass for Up On The Downside. Lyrics for acoustic guitar and electric guitar. Tablatures and chords are parodies/interpretations of the original songs. You may use it for private study, scholarship, research or language learning purposes only