>
 >
Fleeting Mind

Fleeting Mind Guitar Tabs

Ocean Colour Scene - Fleeting Mind chords, tabs, tablatures, lyrics

Guitar lessons | Add/correct | Request | Top 50 tabs Artists:  A B C D E F G H I J K L M N O P Q R S T U V W X Y Z 0-9

Fleeting Mind Guitar Tabs – Ocean Colour Scene

CD, Sheet music, Poster

Do you like Fleeting Mind? Share with your friends now
ChordsTabsUkulele
------------------------------------------------------------------##

                                  FLEETING MIND
                        As recorded by Ocean colour scene
                      (From the 1997 Album MOSELEY SHOALS)

Words and Music by Simon fowler, steve cradock, oscar harrison and damon minchella

           E                 D6sus2                Cmaj7                Badd4
      0 7 9 9 0 0          x 5 7 7 0 0          x 3 5 5 0 0          x 2 4 4 0 0

           A                    D                  D6/A                  E/B
      x 0 2 2 2 x          x x 0 2 3 2          x x 7 7 7 7          x x 9 9 9 x

         E5/B               Dmaj7/F#              Cmaj7V                  B
      x x 9 9 0 7          x x x 7 7 9          x x x 5 5 7          x x 4 4 4 x

         BVII                  Em7                A7sus4                 G6
      7 9 9 8 7 7          x 7 x 7 8 x          x 7 x 7 8 x          3 2 0 0 0 0

Gtr I (E A D G B E) - 'Untitled'
Gtr II (E A D G B E) - 'Untitled'

 Intro
  Q.=60
  E
 12/8
  Gtr I
  E  S S S S E E S S   E  S S S S E E S S
  |  | | | | | | | |   |  | | | | | | | |
  /  / / / / / / / /   /  / / / / / / / /

  Gtr II
  H.                 a H.
|-----------------------------------------|
|-----------------------------------------|
|-----------------------------------------|
|--------------------4s6------------------|
|-----------------------------------------|
|-----------------------------------------|


  D6sus2
  E S S S S E   E   S S E   S S S S E   E   S  S
  | | | | | |   |   | | |   | | | | |   |   |  |
  / / / / / /   /   / / /   / / / / /   /   /  /

  E S S S S S S S S S S S S S S S S S S S S E
|---5-----5-----5-----5-----5-----5-----5---------|
|-----0-----0-----0-----0-----0-----0-----0-------|
|-------7-----7-----7-----7-----7-----7-----7\----|
|-7-----------------------------------------------|
|-------------------------------------------------|
|-------------------------------------------------|


  Cmaj7
  E S S S S E   E   S S E S S S S E   E   S S
  | | | | | |   |   | | | | | | | |   |   | |
  / / / / / /   /   / / / / / / / /   /   / /

  E S S S S S S S S S S E S S S S S S S S S S
|---3-----3-----3---------3-----3-----3-------|
|-----0-----0-----0---0-----0-----0-----0---0-|
|-------5-----5-----5---0-----5-----5-----5---|
|-5-------------------------------------------|
|---------------------------------------------|
|---------------------------------------------|


  Badd4
  E S S S S E   E   S S   E S S S S  E    E   S S
  | | | | | |   |   | |   | | | | |  |    |   | |
  / / / / / /   /   / /   / / / / /  /    /   / /

  E S S S S S S S S S S a E E   S S +S  S S S S S
|---2-----2-----2-----------7-----7-(7)---7----------|
|-----0-----0-----0---0---------------------0---0----|
|-------4-----4-----4---4s8-----8-------------8------|
|-4-------------------------------------9------------|
|----------------------------------------------------|
|----------------------------------------------------|


  E
     E  S  S  S S   E  E S S E  S    S     S    S     E        E S S
     |  |  |  | |   |  | | | |  |    |     |    |     |        | | |
     /  /  /  / /   /  / / / /  /    /     /    /     /        / / /

                                |---3---|  |---3---|  |--3--|
  a  E.    E.      +Q.       E  S  S    S  S  S    S  S  S  S  Q
|---------12------(12)---------12h14p==12----------------------------|
|-----------------------------------------12h14p==12-----------------|
|-8s13-----------------------------------------------13h14p13--------|
|-------------------------------------------------------------14-----|
|--------------------------------------------------------------------|
|--------------------------------------------------------------------|


  D6sus2
    E  S S S S E E S S E  S    S     S    S     E        E S S
    |  | | | | | | | | |  |    |     |    |     |        | | |
    /  / / / / / / / / /  /    /     /    /     /        / / /

                          |---3---|  |---3---|  |--3--|
    H.                 E  S  S    S  S  S    S  S  S  S  Q
|------------------------10h12p==10-------------------------------|
|-!10-------------------------------10h12p==10--------------------|
|-!11------------------------------------------11h12p11-----------|
|-!12---------------------------------------------------12--------|
|-----------------------------------------------------------------|
|-----------------------------------------------------------------|


  Cmaj7
   E  S S S S E E S S E S    S   S    S   E       E S S
   |  | | | | | | | | | |    |   |    |   |       | | |
   /  / / / / / / / / / /    /   /    /   /       / / /

                        |--3---| |--3---| |-3--|
   H.                 E S  S   S S  S   S S  S S  Q
|-!8--------------------8h10p==8------------------------|
|-!8-----------------------------8h10p==8---------------|
|-!9--------------------------------------9h10p9--------|
|------------------------------------------------10-----|
|-------------------------------------------------------|
|-------------------------------------------------------|


  Badd4
   E  S S S S E E S S E    S S S S  E  E  S S
   |  | | | | | | | | |    | | | |  |  |  | |
   /  / / / / / / / / /    / / / /  /  /  / /

   H.                 S E.     E   +E  E  E
|----------------------------------------------||
|-!7---------------------------7---(7)-9-10----||
|-!8------------------8h9----------------------||
|-!9-------------------------------------------||
|----------------------------------------------||
|----------------------------------------------||


 Verse
  E                  D6sus2
   W.                 E. S S S E E E  E  S S S S E E S S
   |                  |  | | | | | |  |  | | | | | | | |
   /                  /  / / / / / /  /  / / / / / / / /

   H.      H.         H.              H.
|------------------|-!5--------------!5------------------|
|-12---------------|-!7--------------!7------------------|
|------------------|-!6--------------!6------------------|
|------------------|-!7--------------!7------------------|
|------------------|-------------------------------------|
|------------------|-------------------------------------|


  Cmaj7
   E. S S S E E E  E  S S S S E E S S
   |  | | | | | |  |  | | | | | | | |
   /  / / / / / /  /  / / / / / / / /

   H.              H.
|-!3--------------!3------------------|
|-!5--------------!5------------------|
|-!4--------------!4------------------|
|-!5--------------!5------------------|
|-------------------------------------|
|-------------------------------------|


  Badd4
   E. S S S E E E E   S S S S E   E   S S
   |  | | | | | | |   | | | | |   |   | |
   /  / / / / / / /   / / / / /   /   / /

   H.             S S S S S S S S S S S S
|-----------------------------------------|
|-!4--------------------------------------|
|-!4--------------------------------------|
|-!4--------------------------------------|
|-----------------2h3---2---0-2-3-2-0-----|
|-------------------------------------3-2-|


  E
  E. S S S  E  E E  E  S S S S  E  E S S
  |  | | |  |  | |  |  | | | |  |  | | |
  /  / / /  /  / /  /  / / / /  /  / / /

  Q.        Q.     +E  S S E   +E  Q
|----------!0------(0)-------------------|
|----------!0------(0)-----9---(9)-------|
|----------!1------(1)-------------------|
|----------!2------(2)-7s9---------9-----|
|----------------------------------------|
|-0--------------------------------------|


  D6sus2
  E. S S S E   E   E   E S S S S  E  E   S S
  |  | | | |   |   |   | | | | |  |  |   | |
  /  / / / /   /   /   / / / / /  /  /   / /

  E. E   S S S S E   S E S E   S +E  S S E
|----5-----------5---------5-----------5------|
|--------0---0-------0---0-----0-(0)----------|
|-7--------7---7-------7-------------7--------|
|---------------------------------------------|
|---------------------------------------------|
|---------------------------------------------|


  Cmaj7
  E.   S S S E   E   E   E   S S S S E   E   S S
  |    | | | |   |   |   |   | | | | |   |   | |
  /    / / / /   /   /   /   / / / / /   /   / /

  E  S S S S S S S S S S S S S S S S S S S S S S
|----3-----3-----3-----3-----3-----3-----3-------|
|------0-----------0-----------0-----------0---0-|
|--------5-----5-----5-----5-----5-----5-----5---|
|-5----------5-----------5-----------5-----------|
|------------------------------------------------|
|------------------------------------------------|


  Badd4
  E.   S S S E   E   E   E S S S S  E  E S S
  |    | | | |   |   |   | | | | |  |  | | |
  /    / / / /   /   /   / / / / /  /  / / /

  E  S S S S S S S S E a E S S S S +Q.
|----2-----2-----2---------7-----7-(7)--------|
|--------2---2-----2---------0----------------|
|------4-------4-----4-4s7-----8--------------|
|-4-------------------------------------------|
|---------------------------------------------|
|---------------------------------------------|


  E             D6Eus2                       D
                                          6/8
    S S S E   S E E S S E S S S S E  E E     E S S S S  E  E E
    | | | |   | | | | | | | | | | |  | |     | | | | |  |  | |
    / / / /   / / / / / / / / / / /  / /     / / / / /  /  / /

  a E   E   E   E E E   E E   E   Q.       a Q     E   +E  Q
|----------------------------------------|----------------------|
|----------------------------------------|----------------------|
|----------------------------------------|----------------------|
|-0h2------------------------------------|----------------------|
|---------------2-2-2---2-2---2---2------|-5h7-----5---(5)-4----|
|-------0---0---0-0-0---0-0---0---0------|----------------------|


  A
 12/8
  S S S E S  E  E S S E S S S S  E     E     E
  | | | | |  |  | | | | | | | |  |     |     |
  / / / / /  /  / / / / / / / /  /     /     /

  Q.         H.                  S  S  S  S  S  S
|-------------------------------------------------|
|-------------------------------------------------|
|-------------------------------------------------|
|-7S========11------------------11h12p11h12p11h12-|
|-0-----------------------------------------------|
|-------------------------------------------------|


  E           D6sus2                E
  E   E   S S E E S S S S S S S S E E E
  |   |     | | | | | | |   |   | | | |
  /   /     / / / / / / /   /   / / / /

  S S S S S S e Q     S S S S S S e Q
|----------------------------------------|
|----------------------------------------|
|----------------------------------------|
|-7p6---6---x-4-6-----7p6---6---x-4------|
|-----------------------------------7----|
|----------------------------------------|


  D                                   A
   E. S S S E E E E S S S S E E S S    E. S S S E E E   E    S S S S E E S S
   |  | | | | | | | | | | | | | | |    |  | | | | | |   |    | | | | | | | |
   /  / / / / / / / / / / / / / / /    /  / / / / / /   /    / / / / / / / /

   W.                                  H          E S S H.
|-!7--------------------------------|-!5-------------------------------------|
|-!7--------------------------------|-!5-------------------------------------|
|-!7--------------------------------|-!6------------5h6p5tr6-----------------|
|-!7--------------------------------|-!7-------------------------------------|
|-----------------------------------|----------------------------------------|
|-----------------------------------|----------------------------------------|


  D6/A                              E/B
  S S S S S S E S S E S S S S S S S S E S S
  | | | | | | | | | | | | | | | | | | | | |
  / / / / / / / / / / / / / / / / / / / / /

  E   S S E   e Q     E   S S E   e   Q
|-------------------------------------------|
|-------9-----7-------------------7---------|
|-------9-----7-9-----------9-----7---9-----|
|-------9-----7-9-----------9-----7---9-----|
|-------------------------------------------|
|-------------------------------------------|


  D6/A
  S S S  S S  S  E E S S S S S  E    S  E E S S
  | | |  | |  |  | | | | | | |  |    |  | | | |
  / / /  / /  /  / / / / / / /  /    /  / / / /

  E   S  S S  S  e Q     E   S  S S  S  e Q
|-----------------------------------------------||
|-------12------10-9-----------12------10-9-----||
|-------13------11-9-----------13------11-9-----||
|-------14---12-12-9-----------14---12-12-9-----||
|-----------------------------------------------||
|-----------------------------------------------||


 Chorus
  E
    E  S S S S E E S S   E  S S S S E  E S S
    |  | | | | | | | |   |  | | | | |  | | |
    /  / / / / / / / /   /  / / / / /  / / /

    H.                  +Q.         Q.
|-!-0-------------------(0)------------------|
|-!12------------------(12)------------------|
|-!13------------------(13)------------------|
|-!14------------------(14)------------------|
|--------------------------------------------|
|--------------------------------------------|


  D6sus2
    E  S S S S E E S S  E  S S S S  E  E S S
    |  | | | | | | | |  |  | | | |  |  | | |
    /  / / / / / / / /  /  / / / /  /  / / /

    H.                  Q.          E  Q
|---------------------------------------------|
|-!14------------------14----------15-14------|
|-!14-----------------------------------------|
|-!16-----------------------------------------|
|---------------------------------------------|
|---------------------------------------------|


  Cmaj7                Badd4
 6/8                  12/8
  E  S S S S E E S S   E  S S S S E E S S  E  S S S S E   E   S S
  |  | | | | | | | |   |  | | | | | | | |  |  | | | | |   |   | |
  /  / / / / / / / /   /  / / / / / / / /  /  / / / / /   /   / /

  H.                   H.                 +Q.         S S S S S S
|--------------------|--------------------------------------------|
|--------------------|--------------------------------------------|
|--------------------|--------------------------------------------|
|--------------------|--------------------------------------------|
|-3------------------|-2------------------(2)---------2-3-2-0-----|
|--------------------|----------------------------------------3-2-|


  E5/B
  E  S S S S E E   S S E   S S S S E E   S S
  |  | | | | | |   | | |   | | | | | |   | |
  /  / / / / / /   / / /   / / / / / /   / /

  Q.         E S E   S S S S S E   E S S E
|----------------7-----------7---------7-----|
|--------------------0-----0---0-------------|
|------------9---------9-----------9---------|
|--------------9---------9-----------9-------|
|--------------------------------------------|
|-0------------------------------------------|


  Dmaj7/F#
  E  S S S S E   E   S S E   S S S S E   E    S S
  |  | | | | |   |   | | |   | | | | |   |    | |
  /  / / / / /   /   / / /   / / / / /   /    / /

  E.   S S S S S S S S S S S S S S S S S S E.
|-9----9-----------9-----------9-----------9------|
|-7------7-7-7---7---7---7---7---7---7---7--------|
|-7------------7-------7---7-------7---7----------|
|-------------------------------------------------|
|-------------------------------------------------|
|-------------------------------------------------|


  Cmaj7V                    B                                      BVII
 6/8                       12/8
  E   S S S S E   E   S S   E  S S S S E E S S E S S S S E E S S   W.
  |   | | | | |   |   | |   |  | | | | | | | | | | | | | | | | |   |
  /   / / / / /   /   / /   /  / / / / / / / / / / / / / / / / /   /

  S S S S S S S S S S S S   W.                                     W.
|-------7-----------7-----|--------------------------------------|-7-----||
|-----5---5-5-----5---5---|-4------------------------------------|-7-----||
|-5-5---------5-5-------8-|-4------------------------------------|-8-----||
|-------------------------|-4------------------------------------|-9-----||
|-------------------------|--------------------------------------|-9-----||
|-------------------------|--------------------------------------|-7-----||


 Verse
  E
  E S S S S E E   S S E S S S S E E   S S
  | | | | | | |   | | | | | | | | |   | |
  / / / / / / /   / / / / / / / / /   / /

  E S E   S E S E   S E S E   S E S E   S
|-----7---------7---------7---------7-----|
|---------0---------0---------0---------0-|
|-9---------9---------9---------9---------|
|---9---------9---------9---------9-------|
|-----------------------------------------|
|-----------------------------------------|


  D6sus2
  E S S S S E E   S S E S S S S E E   S S
  | | | | | | |   | | | | | | | | |   | |
  / / / / / / /   / / / / / / / / /   / /

  E S E   S E S E   S E S E   S E S E   S
|-----5---------5---------5---------5------|
|---------0---------0---------0---------0--|
|-7---------7---------7---------7----------|
|---7---------7---------7---------7--------|
|------------------------------------------|
|------------------------------------------|


  Cmaj7
  E.   S S S E   E   E   E S S S S E   E   S S
  |    | | | |   |   |   | | | | | |   |   | |
  /    / / / /   /   /   / / / / / /   /   / /

  E  S S S S S S S S S S E S S S S S S S S S S
|----3-----3-----3-----3---3-----3-----3-------|
|------0-------0-----0-------0-------0---0---0-|
|--------5---5-----5-----5-----5---5-------5---|
|-5--------------------------------------------|
|----------------------------------------------|
|----------------------------------------------|


  Badd4
  E.   S S S E   E   E     E  S S S S E E    S S
  |    | | | |   |   |     |  | | | | | |    | |
  /    / / / /   /   /     /  / / / / / /    / /

  E  S S S S S S S S S S a E.   E   S E S E.
|----2-----2-----2-------5s7----7---------7------|
|--------2-----2-----2----------------0----------|
|-4----4-----4-----4---4-------------------------|
|-----------------------------------9---9--------|
|------------------------------------------------|
|------------------------------------------------|


  E                                       D
                                       6/8
  E. S S S  E  E E E S S S S E  E S S     E. S S S  E  E E
  |  | | |  |  | | | | | | | |  | | |     |  | | |  |  | |
  /  / / /  /  / / / / / / / /  / / /     /  / / /  /  / /

  Q.       +E  E E E E   E   Q.         a Q    E   +E  Q
|-0--------(0)------------------------|--------------------|
|-0--------(0)------------------------|--------------------|
|-1--------(1)------------------------|--------------------|
|-2--------(2)------------------------|--------------------|
|-2--------(2)-x-x-x---------2--------|-5h7----5---(5)-4---|
|-0--------(0)-x-x-x---------0--------|--------------------|


  A
 12/8
  E.S S S  E  E E E S S S S  E     E     S  S
  | | | |  |  | | | | | | |  |     |     |  |
  / / / /  /  / / / / / / /  /     /     /  /

  Q.       H.                S  S  S  S  S  S
|---------------------------------------------|
|---------------------------------------------|
|---------------------------------------------|
|-7S======11----------------11h12p11h12p11h12-|
|-0-------------------------------------------|
|---------------------------------------------|


  E
  E.    S S S E E E E   S S S S E E S S
  |     | | | | | | |   | | | | | | | |
  /     / / / / / / /   / / / / / / / /

  S S S S S S e Q   S S S S S S E E E
|----------------------------------------|
|----------------------------------------|
|----------------------------------------|
|-7p6---6---x-4-6---7p6---6---x-4-6------|
|-----------------------------------7----|
|----------------------------------------|


  D
  E. S S S E E E E S S S S E     E S S
  |  | | | | | | | | | | | |     | | |
  /  / / / / / / / / / / / /     / / /

                           |-3-|
  H.             E S S E   S S S E E
|--------------------------------------|
|--------------------------------------|
|--------------------------------------|
|-4--------------------7---7h9p7-------|
|-5----------------7h9-----------9-7S==|
|--------------------------------------|


  A
  E. S S S E E E  E     S S  S  S  E     E S S
  |  | | | | | |  |     | |  |  |  |     | | |
  /  / / / / / /  /     / /  /  /  /     / / /

  H.              S  S  E    S  S  S  S  E E
|-----------------------------------------------|
|----------------------14s==12-12-------10------|
|-----------------------------------------------|
|----------------12s14------------12s11---------|
|-0---------------------------------------------|
|-----------------------------------------------|


  Em7
    W                  W                  W                  W
    W.                +W.                 W.                +W.
|-<12>------------|-(<12>)------------|-<12>------------|-(<12>)----||
|-<12>------------|-(<12>)------------|-<12>------------|-(<12>)----||
|-<12>------------|-(<12>)------------|-<12>------------|-(<12>)----||
|-<12>------------|-(<12>)------------|-<12>------------|-(<12>)----||
|-----------------|-------------------|-----------------|-----------||
|-----------------|-------------------|-----------------|-----------||


 Interlude
                  Em7
  Gtr I
  Q.          E   Q  +H.
                  |   |
                  /   /

  S S S S S S S S Q   S  S S S S S E E E
|----------------------------------------|
|----------------------------------------|
|----------------------------------------|
|----------------------------------5-5-5-|
|-5h7---7-----7---7---5--7---7---7-------|
|-----------x----------------------------|


                   A7sus4
  Q.           E   Q    +H.
                   |     |
                   /     /

  S  S S S S S S E   E.  S  S S S S S E S S S S
|------------------------------------------------|
|------------------------------------------------|
|------------------------------------------------|
|-5----------------------5-----------------------|
|----7---7---x-5-7---7------7---7---7-7-5-7-5----|
|---------------------------------------------7--|


                 Em7
  Q.         E   Q    +H.
                 |     |
                 /     /

  S  S S E S S S S E.  S  S S E S S S S E.
|------------------------------------------|
|------------------------------------------|
|------------------------------------------|
|------------5--------------------5--------|
|-5--7---7-7---7---7---5--7---7-7---7---7--|
|------------------------------------------|


                 A7sus4
  Q.         E   Q    +H.
                 |     |
                 /     /

  S  S S E S S S S E.  S  S S E S S S S E.
|-------------------------------------------|
|-------------------------------------------|
|-------------------------------------------|
|------------5--------------------5---------|
|-5--7---7-7---7---7---5--7---7-7---7---7---|
|-------------------------------------------|


  E
   E    S  S S  S  E     E  S  S  E    S  S S  S  E     E               S  S
   |    |  | |  |  |     |  |  |  |    |  | |  |  |     |               |  |
   /    /  / /  /  /     /  /  /  /    /  / /  /  /     /               /  /

   S  S S  S S  S  S  S  E.    S  S  S S  S S  S  S  S  S     +S       +E
|----------------------------------------------------------------------------|
|---------14------------12---------------14------------14b15-(14)pb15r(14)---|
|---------14------------12---------------14------------14b15-(14)pb15r(14)---|
|-12-14---14---14-12-14-12----12-12-14---14---14-12-14-----------------------|
|----------------------------------------------------------------------------|
|----------------------------------------------------------------------------|


  BVII
   E S S  S S   E   E S S  E  S S S S E E S S
   | | |  | |   |   | | |  |  | | | | | | | |
   / / /  / /   /   / / /  /  / / / / / / / /

   Q      E    +E   Q      H.
|---------------------------------------------||
|---------------------------------------------||
|------------------14-------------------------||
|--------13---(13)--------13------------------||
|-14------------------------------------------||
|---------------------------------------------||


 Verse
  E
  E S S S S E  E S S  E  S S S S E E S S
  | | | | | |  | | |  |  | | | | | | | |
  / / / / / /  / / /  /  / / / / / / / /

  Q     S S Q.       +H.
|----------------------------------------|
|-----------9--------(9)-----------------|
|---------9------------------------------|
|-------9--------------------------------|
|----------------------------------------|
|----------------------------------------|


  D6sus2
  E S S S S E E   S S E S S S S E E   S S
  | | | | | | |   | | | | | | | | |   | |
  / / / / / / /   / / / / / / / / /   / /

  E S E   S E S E   S E S E   S E S E   S
|-----5---------5---------5---------5------|
|---------0---------0---------0---------0--|
|-7---------7---------7---------7----------|
|---7---------7---------7---------7--------|
|------------------------------------------|
|------------------------------------------|


  Cmaj7
  E.   S S S E   E   E   E S S S S E   E   S S
  |    | | | |   |   |   | | | | | |   |   | |
  /    / / / /   /   /   / / / / / /   /   / /

  E  S S S S S S S S S S E S S S S S S S S S S
|----3-----3-----3-----3---3-----3-----3-------|
|------0-------0-----0-------0-------0---0---0-|
|-5------5---5-----5-----5-----5---5-------5---|
|----------------------------------------------|
|----------------------------------------------|
|----------------------------------------------|


  Badd4
  E.   S S S E   E   E   E S S S S E   E    S S
  |    | | | |   |   |   | | | | | |   |    | |
  /    / / / /   /   /   / / / / / /   /    / /

  E  S S S S S S S S S S E S S S S S S S E.
|----2-----2-----2-----2---2-----2-----2--------|
|--------0-----0-----0---------0---0-----0------|
|-4----4-----4-----4-----4---4-------4----------|
|-----------------------------------------------|
|-----------------------------------------------|
|-----------------------------------------------|


  E                                    D                A
  E. S S S E E E E S S S S E E S S     E. S S S  E  E E E S S S S  E  E S S
  |  | | | | | | | | | | | | | | |     |  | | |  |  | | | | | | |  |  | | |
  /  / / / / / / / / / / / / / / /     /  / / /  /  / / / / / / /  /  / / /

  W.                                 a Q    E   +E  Q   Q.         Q.
|-0--------------------------------|----------------------------------------|
|-0--------------------------------|----------------------------------------|
|-1--------------------------------|----------------------------------------|
|-2--------------------------------|--------------------7S========11--------|
|-2--------------------------------|-5h7----5---(5)-4---0-------------------|
|-0--------------------------------|----------------------------------------|


  E
  E. S S S  E  E  E E  S S S S E   E   S S
  |  | | |  |  |  | |  | | | | |   |   | |
  /  / / /  /  /  / /  / / / / /   /   / /

  Q.       +E  Q    E.   S S S S S S S E
|-0--------(0)-----------------------------|
|-0--------(0)-8/--------------------------|
|-1--------(1)-7/--------------------------|
|-2--------(2)-----------5-----5-----5-----|
|-2--------(2)-7/----------7-5-5-7---7-7---|
|-0--------(0)-----------------------------|


    D                A
    E. S S S  E  E E E S S S S  E  E S S
    |  | | |  |  | | | | | | |  |  | | |
    /  / / /  /  / / / / / / /  /  / / /

  a Q    E   +E  Q   Q.         Q.
|----------------------------------------|
|----------------------------------------|
|----------------------------------------|
|--------------------7S========11--------|
|-5h7----5---(5)-4---0-------------------|
|----------------------------------------|


  E
  E. S S S E E  E E S S S S E   E    S S
  |  | | | | |  | | | | | | |   |    | |
  /  / / / / /  / / / / / / /   /    / /

  Q.       E Q    E S S S S S S S E.
|-0--------x--------3p0-3p0--------------|
|-0--------x-8/-------------3p0-3s5------|
|-1--------x-7/--------------------------|
|-2--------x-----------------------------|
|-2--------x-7/--------------------------|
|-0--------x-----------------------------|


    D                  A
 6/8                  12/8
    E. S S S  E  E E   E  S S S S  E  E S S E. S S S E  E E
    |  | | |  |  | |   |  | | | |  |  | | | |  | | | |  | |
    /  / / /  /  / /   /  / / / /  /  / / / /  / / / /  / /

  a Q    E   +E  Q     Q.         +Q    E   Q.       Q.
|--------------------|--------------------------------------|
|--------------------|--------------------------------------|
|--------------------|--------------------------------------|
|--------------------|------------------7S==2--------2------|
|-5h7----5---(5)-4---|-0----------(0)-------0--------0------|
|--------------------|--------------------------------------|


  E
  E   S S S S E E  S S E.   S S S E   E   E
  |   | | | | | |  | | |    | | | |   |   |
  /   / / / / / /  / / /    / / / /   /   /

  S S S S S S E Q      E  S S S S S S S S S S
|-----------------------------------------------|
|---------------8/------------------------------|
|---------------7/------------------------------|
|-7p6---6---x-4-----------7p6---4---0-4---6-4---|
|---------------7/------------------------------|
|-----------------------------------------------|


    D
 6/8
    E S S S S  E  E S S
    | | | | |  |  | | |
    / / / / /  /  / / /

  a Q     E   +E  Q
|-----------------------|
|-----------------------|
|-----------------------|
|-----------------------|
|-5h7-----5---(5)-4-----|
|-----------------------|


  A
 12/8
  E.S S S  E E        E       E.     S S S   E      E E
  | | | |  | |        |       |      | | |   |      | |
  / / / /  / /        /       /      / / /   /      / /

  Q.       Q    a  a  E      +Q.            +E      E E
|-----------------------------------------------------x-|
|---------------------------------------------------8-x-|
|---------------------------------------------------7-x-|
|-7S======11---11h12p11tr12-(11tr12)-------(11tr12)---x-|
|-0-------------------------------------------------7---|
|-------------------------------------------------------|


  E                      D
  E. S S S E   E   E     E. S S S E           E            E
  |  | | | |   |   |     |  | | | |           |            |
  /  / / / /   /   /     /  / / / /           /            /

                   |-3-|
  Q.       S S S S S S S Q.       S   +S     +S    +S     +S  S
|-0----------------------2--------------------------------------|
|-0----------------------3--------7b8-(7)pb8r(7)b8-(7)pb8r(7)p0-|
|-1----------------------2--------7b8-(7)pb8r(7)b8-(7)pb8r(7)p0-|
|-2------------2---2h4p2-0--------------------------------------|
|-2--------2h4--------------------------------------------------|
|-0-------------------------------------------------------------|


  A
 6/8
  E S S S S E    E  S S
  | | | | | |    |  | |
  / / / / / /    /  / /

  E S S S S S S +Q
|-5-----7-----9-(9)------||
|-5----------------------||
|-6-6s7---7s8------------||
|------------------------||
|------------------------||
|------------------------||


 Guitar Solo
  E                    G6
 12/8
   E.    S S S  E  E E  E S  S S S  E  E S S
   |     | | |  |  | |  | |  | | |  |  | | |
   /     / / /  /  / /  / /  / / /  /  / / /

   E  S  E   S  E  Q    E S  E   S  E  Q
|--------------------------------------------|
|-12----12-----12------12---12-----12--------|
|-12----12-----12------12---12-----12--------|
|-----------------14------------------14-----|
|--------------------------------------------|
|--------------------------------------------|


  D
   E.    S S S  E  E E  E    S      S        S  S  E     E     S  S
   |     | | |  |  | |  |    |      |        |  |  |     |     |  |
   /     / / /  /  / /  /    /      /        /  /  /     /     /  /

   E  S  E   S  E  Q    S S  S     +S       +E     S  S  S  S  S  S
|--------------------------------------------------------------------|
|-12----12-----12------12-x-14b15-(14)pb15r(14)----------------------|
|-12----12-----12------12-x-14b15-(14)pb15r(14)---12-----------------|
|-----------------14---------------------------------14-12-----------|
|----------------------------------------------------------14-13-12--|
|--------------------------------------------------------------------|


  E                                G6
   E.     S  S  S  E     E    E     E    S  S S  S  E    E     S  S
   |      |  |  |  |     |    |     |    |  | |  |  |    |     |  |
   /      /  /  /  /     /    /     /    /  / /  /  /    /     /  /

   E   S  S  S  S  S  S  S  S S  S  S S  S  S S  S  S S  S  S  S  S
|-------------------------------------------------------------------|
|---------------------------------------12------12------12----12-12-|
|--------------12-------12------12------12------12------12----12-12-|
|--------------12-------12------12-14------14------14------14-------|
|-10--12-13-14----14-14----14---------------------------------------|
|-------------------------------------------------------------------|


  D
          E.            S         S  S         E   E     E            E  S S S S  E        E        S  S
          |             |         |  |         |   |     |            |  | | | |  |        |        |  |
          /             /         /  /         /   /     /            /  / / / /  /        /        /  /

                                                                                  |--3--|  |--3--|
   a     +E   a     +E     a     +E     a     +E   S  S  S  S  a     +Q.          S  S  S  S  S  S  S  S
|--------------------------------------------------------------------------------15-12-------------------||
|-------------------------------------------------12-12-15-15-15b17-(15)---------------15-12-------------||
|-14b16-(14)-14b16-(14)---14b16-(14)---14b16-(14)--------------------------------------------15-14-12----||
|-----------------------------------------------------------------------------------------------------14-||
|--------------------------------------------------------------------------------------------------------||
|--------------------------------------------------------------------------------------------------------||


   Outro
    E                           G6
     E. S S S  E     E     E     E  S S S S   E          E   S S
     |  | | |  |     |     |     |  | | | |   |          |   | |
     /  / / /  /     /     /     /  / / / /   /          /   / /

     Q.        E  a  S  S  S  S  Q.          +S   S     +E   E
||----------------------------------------------------------15---|
||o----------------------------------------------15b17-(15)------|
||--12--------12----------------12----------(12)-----------------|
||---------------15s14-12-14-14----------------------------------|
||o--------------------------------------------------------------|
||---------------------------------------------------------------|


  D
   E.              S  S S   E   E                      E   E   S  S  S  S  E     E     S  S
   |               |  | |   |   |                      |   |   |  |  |  |  |     |     |  |
   /               /  / /   /   /                      /   /   /  /  /  /  /     /     /  /

   S  S  a     +S  S  E    +E   T     +T       +T   T  E  +E   S  S  S  S  S  S  S  S  S  S
|-----------------------------------------------------------------------------------------------||
|-15----------------------------------------------------------12-12-12-12-12-12-15-15-15-12----o||
|-------14b16-(14)---12---(12)-14b16-(14)pb16r(14)p12-------------------------------------------||
|-----------------------------------------------------14-(14)-----------------------------------||
|----------------------------------------------------------------------------------------------o||
|-----------------------------------------------------------------------------------------------||


Duration Legend
---------------
W - whole; H - half; Q - quarter; E - 8th; S - 16th; T - 32nd; X - 64th; a - acciaccatura
+ - note tied to previous; . - note dotted; .. - note double dotted
Uncapitalized letters represent notes that are staccato (1/2 duration)
Irregular groupings are notated above the duration line
Duration letters will always appear directly above the note/fret number it represents the
duration for.  Duration letters with no fret number below them represent rests.  Multi-
bar rests are notated in the form Wxn, where n is the number of bars to rest for.  Low
melody durations appear below the staff

Tablature Legend
----------------
 h   - hammer-on
 p   - pull-off
 b   - bend
 pb  - pre-bend
 r   - bend release (if no number after the r, then release immediately)
 /\  - slide into or out of (from/to "nowhere")
 s   - legato slide
 S   - shift slide
  - natural harmonic
[n]  - artificial harmonic
n(n) - tapped harmonic
 ~   - vibrato
 tr  - trill
 T   - tap
 TP  - trem. picking
 PM  - palm muting
\n/  - tremolo bar dip; n = amount to dip
 \n  - tremolo bar down
 n/  - tremolo bar up
/n\  - tremolo bar inverted dip
 =   - hold bend; also acts as connecting device for hammers/pulls
 <>  - volume swell (louder/softer)
 x   - on rhythm slash represents muted slash
 o   - on rhythm slash represents single note slash

Misc Legend
-----------
 |  - bar
||  - double bar
||o - repeat start
o|| - repeat end
*|  - double bar (ending)
 :  - bar (freetime)
 $  - Segno
 &  - Coda
Tempo markers -  = BPM(8/16=s8/s16), where s8 = swing 8ths, s16 = swing 16ths





Comments


Popular Ocean Colour Scene tabs & chords
Lining Your Pockets Bass Tabs
Emily Chambers Chords
Foxys Faced Folk Chords
Hello Monday Chords
Here In My Heart Chords
Sing Children Sing Chords
Justine Tabs
Man In The Middle Tabs
Outside Of A Circle Tabs
The Riverboat Song Intro Tabs


Song lyrics



↑ Back to top | Tablatures and chords are parodies/interpretations of the original songs. You may use it for private study, scholarship, research or language learning purposes only
© 2014 AZChords.com Contact us | Privacy policy | DMCA | Add/correct tabs | Request tabs | Top 50 tabs