» » »

Ocean Colour Scene, Everything Comes At The Right Time Tabs (ver.1)

Artists:  A B C D E F G H I J K L M N O P Q R S T U V W X Y Z # 

Everything Comes At The Right Time Tabs (ver.1)

Ocean Colour Scene Tabs
 Rating:
4/5 (5 votes)
Everything Comes At The Right Time lessons Tabs too difficult? Try these video lessons and learn fast
                Band: Ocean Colour Scene


Intro and Main Riff:

E-------------------------------------------------|
B-------------------------------------------------|
G-------------------------------------------------|  x2
D----------------0-1-2--------------------2-1-0---|
A--------0--1--2-----------------0--1--2----------|
E--0--3~------------------0--3~-------------------|

Verse:

E------------0-----------------------------|
B------------0-----------------------------|
G------------0--------------------7--6--4--|
D---------------------------------7--6--4--|
A---------------------------------5--4--2--|
E--0-0-12-12-0-0-12-12-0-0-12-12-----------|

E-------------------0-----------------------------|
B-------------------0-----------------------------|
G-------------------0------------7--6--4----------|  play both
D--------------------------------7--6--4----2--5--|  lines x 2
A--------------------------------5--4--2----2--5--|
E-0-0-12-12-0-0-12-12-0-0-12-12-------------0--3--|

E------------------------------------------------------------------------|
B--7-7-7-7-7-7-7-7-7-7-7-7--9-9-9-9----7-7-7-7-7-7-7-7-7-7-7-7--9-9-9-9--|
D--7-7-7-7-7-7-7-7-7-7-7-7--9-9-9-9----7-7-7-7-7-7-7-7-7-7-7-7--9-9-9-9--|
A--5-5-5-5-5-5-5-5-5-5-5-5--7-7-7-7----5-5-5-5-5-5-5-5-5-5-5-5--7-7-7-7--|
E------------------------------------------------------------------------|

E---------------------|
B--7-7-7-7------------|
D--7-7-7-7---5-5---7--|
A--5-5-5-5---5-5---7--| hold
E------------3-3---5--|


E------------0-----------------------------|
B------------0-----------------------------|
G------------0--------------------7--6--4--|
D---------------------------------7--6--4--|
A---------------------------------5--4--2--|
E--0-0-12-12-0-0-12-12-0-0-12-12-----------|

E-------------------0-----------------------------|
B-------------------0-----------------------------|
G-------------------0------------7--6--4----------|  play both
D--------------------------------7--6--4----2--5--|  lines x 2
A--------------------------------5--4--2----2--5--|
E-0-0-12-12-0-0-12-12-0-0-12-12-------------0--3--|


Chorus:

E--0-0-0-0-0-0-0-0---5-5-5---4-4---4---0-0-0-0-0-0-0-0--|
B--0-0-0-0-0-0-0-0---7-7-7---6-6---6---0-0-0-0-0-0-0-0--|
G--1-1-1-1-1-1-1-1---7-7-7---6-6---6---1-1-1-1-1-1-1-1--|
D--2-2-2-2-2-2-2-2---7-7-7---6-6---6---2-2-2-2-2-2-2-2--|
A--2-2-2-2-2-2-2-2---5-5-5---4-4---4---2-2-2-2-2-2-2-2--|
E--0-0-0-0-0-0-0-0---5-5-5---4-4---4---0-0-0-0-0-0-0-0--|

E------------------------------|
B------------------------------|
G------------------------------|
D--5h7p5h7p5h7p5h7p5h7p5h7p5---| play whole thing x2
A------------------------------|
E------------------------------|

Verse 2:

E------------0-----------------------------|
B------------0-----------------------------|
G------------0--------------------7--6--4--|
D---------------------------------7--6--4--|
A---------------------------------5--4--2--|
E--0-0-12-12-0-0-12-12-0-0-12-12-----------|

E-------------------0-----------------------------|
B-------------------0-----------------------------|
G-------------------0------------7--6--4----------|  play both
D--------------------------------7--6--4----2--5--|  lines x 2
A--------------------------------5--4--2----2--5--|
E-0-0-12-12-0-0-12-12-0-0-12-12-------------0--3--|

E------------------------------------------------------------------------|
B--7-7-7-7-7-7-7-7-7-7-7-7--9-9-9-9----7-7-7-7-7-7-7-7-7-7-7-7--9-9-9-9--|
D--7-7-7-7-7-7-7-7-7-7-7-7--9-9-9-9----7-7-7-7-7-7-7-7-7-7-7-7--9-9-9-9--|
A--5-5-5-5-5-5-5-5-5-5-5-5--7-7-7-7----5-5-5-5-5-5-5-5-5-5-5-5--7-7-7-7--|
E------------------------------------------------------------------------|

E---------------------|
B--7-7-7-7------------|
D--7-7-7-7---5-5---7--|
A--5-5-5-5---5-5---7--| hold
E------------3-3---5--|


E------------0-----------------------------|
B------------0-----------------------------|
G------------0--------------------7--6--4--|
D---------------------------------7--6--4--|
A---------------------------------5--4--2--|
E--0-0-12-12-0-0-12-12-0-0-12-12-----------|

E-------------------0-----------------------------|
B-------------------0-----------------------------|
G-------------------0------------7--6--4----------|  play both
D--------------------------------7--6--4----2--5--|  lines x 2
A--------------------------------5--4--2----2--5--|
E-0-0-12-12-0-0-12-12-0-0-12-12-------------0--3--|

Fill (you'll hear it in the track)

E------------|
B------------|
G--11b14-----| slow bend and hold
D------------|
A------------|
E------------|

2nd Chorus:

E--0-0-0-0-0-0-0-0---5-5-5---4-4---4---0-0-0-0-0-0-0-0--|
B--0-0-0-0-0-0-0-0---7-7-7---6-6---6---0-0-0-0-0-0-0-0--|
G--1-1-1-1-1-1-1-1---7-7-7---6-6---6---1-1-1-1-1-1-1-1--|
D--2-2-2-2-2-2-2-2---7-7-7---6-6---6---2-2-2-2-2-2-2-2--|
A--2-2-2-2-2-2-2-2---5-5-5---4-4---4---2-2-2-2-2-2-2-2--|
E--0-0-0-0-0-0-0-0---5-5-5---4-4---4---0-0-0-0-0-0-0-0--|

E----------------------------------------------|
B----------------------------------------------|
G----------------------------------------------|
D----5h7p5h7p5h7p5h7p5-------------------------|
A----------------------5h7p5h7p5h7p5h7p5h7p5---|
E----------------------------------------------|

E--0-0-0-0-0-0-0-0---5-5-5---4-4---4---3-3--|
B--0-0-0-0-0-0-0-0---7-7-7---6-6---6---5-5--|
G--1-1-1-1-1-1-1-1---7-7-7---6-6---6---5-5--|
D--2-2-2-2-2-2-2-2---7-7-7---6-6---6---5-5--|
A--2-2-2-2-2-2-2-2---5-5-5---4-4---4---3-3--|
E--0-0-0-0-0-0-0-0---5-5-5---4-4---4---3-3--|

E----------------------------------------------|
B----------------------------------------------|
G----------------------------------------------|
D----5h7p5h7p5h7p5h7p5-------------------------|
A----------------------5h7p5h7p5h7p5h7p5h7p5---|
E----------------------------------------------|


Main Riff:

E-------------------------------------------------|
B-------------------------------------------------|
G-------------------------------------------------|
D----------------0-1-2--------------------2-1-0---| Play twice
A--------0--1--2-----------------0--1--2----------|
E--0--3~------------------0--3~-------------------|

Bridge:

E------------------------------------------------------------------------|
B--7-7-7-7-7-7-7-7-7-7-7-7--9-9-9-9----7-7-7-7-7-7-7-7-7-7-7-7--9-9-9-9--|
D--7-7-7-7-7-7-7-7-7-7-7-7--9-9-9-9----7-7-7-7-7-7-7-7-7-7-7-7--9-9-9-9--|
A--5-5-5-5-5-5-5-5-5-5-5-5--7-7-7-7----5-5-5-5-5-5-5-5-5-5-5-5--7-7-7-7--|
E------------------------------------------------------------------------|

E---------------------|
B--7-7-7-7------------|
D--7-7-7-7---5-5---7--|
A--5-5-5-5---5-5---7--| hold
E------------3-3---5--|


E------------0-----------------------------|
B------------0-----------------------------|
G------------0--------------------7--6--4--|
D---------------------------------7--6--4--|
A---------------------------------5--4--2--|
E--0-0-12-12-0-0-12-12-0-0-12-12-----------|

E-------------------0-----------------------------|
B-------------------0-----------------------------|
G-------------------0------------7--6--4----------|  play both
D--------------------------------7--6--4----2--5--|  lines x 2
A--------------------------------5--4--2----2--5--|
E-0-0-12-12-0-0-12-12-0-0-12-12-------------0--3--|


3rd Chorus:

E--0-0-0-0-0-0-0-0---5-5-5---4-4---4---0-0-0-0-0-0-0-0--|
B--0-0-0-0-0-0-0-0---7-7-7---6-6---6---0-0-0-0-0-0-0-0--|
G--1-1-1-1-1-1-1-1---7-7-7---6-6---6---1-1-1-1-1-1-1-1--|
D--2-2-2-2-2-2-2-2---7-7-7---6-6---6---2-2-2-2-2-2-2-2--|
A--2-2-2-2-2-2-2-2---5-5-5---4-4---4---2-2-2-2-2-2-2-2--|
E--0-0-0-0-0-0-0-0---5-5-5---4-4---4---0-0-0-0-0-0-0-0--|

E------------------------------|
B------------------------------|
G------------------------------|
D--5h7p5h7p5h7p5h7p5h7p5h7p5---|
A------------------------------|
E------------------------------|


E--0-0-0-0-0-0-0-0---5-5-5---4-4---4---3-3--|
B--0-0-0-0-0-0-0-0---7-7-7---6-6---6---5-5--|
G--1-1-1-1-1-1-1-1---7-7-7---6-6---6---5-5--|
D--2-2-2-2-2-2-2-2---7-7-7---6-6---6---5-5--|
A--2-2-2-2-2-2-2-2---5-5-5---4-4---4---3-3--|
E--0-0-0-0-0-0-0-0---5-5-5---4-4---4---3-3--|


Guitar Ends On:

E--12~~~~~~-----| hold
B---------------|
G---------------|
D---------------|
A---------------|
E---------------|
            
Submit corrections

comments powered by Disqus
↑ Back to top | Ocean Colour Scene Tabs for Everything Comes At The Right Time. Lyrics for acoustic guitar and electric guitar. Tablatures and chords are parodies/interpretations of the original songs. You may use it for private study, scholarship, research or language learning purposes only