» » »

Drifting Falling Tabs (ver.2)

Artists:  A B C D E F G H I J K L M N O P Q R S T U V W X Y Z # 

Drifting Falling Tabs (ver.2)

Ocean Blue
Rating:
0/5 (0 votes)

Hard to play? Try these video lessons and learn fast.
                "(1)
Sax intro - tabbed for guitar

|------8-7---------|------8-7---------|------8-7---------|------------------|
|--8-------8---8---|--8---------------|--8-------8---8---|------------------|
|10----------------|10----------------|10----------------|------------------|
|------------------|------------------|------------------|------------------|
|------------------|------------------|------------------|------------------|
|------------------|------------------|------------------|------------------|
 1 . 2 . 3 . 4 .    1 . 2 . 3 . 4 .    1 . 2 . 3 . 4 .    1 . 2 . 3 . 4 .



|------8-7---------|------8-7---------|--10-8-7-8-7------|------------------|
|--8-------8---8---|--8---------------|-------------8----|8-----------------|
|10----------------|10----------------|---------------9--|------------------|
|------------------|------------------|------------------|------------------|
|------------------|------------------|------------------|------------------|
|------------------|------------------|------------------|------------------|
 1 . 2 . 3 . 4 .    1 . 2 . 3 . 4 .    1 .  2 . 3 . 4 .   1 . 2 . 3 . 4 .


F       G                F     G
You may find you're all alone
F    G               F         G
All around you not a sound
F         G               F    G
Drifting, falling on your own again
F            G                F           G
The walls of cold and gray surround, they surround


You may find you're by yourself
Friends have all grown up and gone away
Drifting, falling you can't stop yourself
The walls of cold and gray surround, they surround



{Note: I'm still working out the sax line that goes with this verse.  It's
       all based on the C scale.  I'll post it as soon as I figure it out
       unless some other kind soul has worked it and and would post it :-) }
C
Drifting, falling
G                             F
Watching all your dreams roll by
F         G
They roll by
C
Somewhere out there
G                    F
She sees you and she sighs
F       G
My, my, my, my, my


F       G                F     G
You may find you're all alone
F    G               F         G
All around you not a sound
F         G               F    G
Drifting, falling on your own again
F            G                F           G
The walls of cold and gray surround, they surround


C
Drifting, falling
G                             F
Watching all your dreams roll by
F         G
They roll by
C
Somewhere out there
G                    F
She sees you and she sighs
F       G
My, my, my, my, my
"            
Hard to play? Try these video lessons and learn fast. | Correct




comments powered by Disqus
↑ Back to top | Tablatures and chords are parodies/interpretations of the original songs. You may use it for private study, scholarship, research or language learning purposes only