>
 >
Crash

Crash Guitar Tabs

Ocean Blue - Crash chords, tabs, tablatures, lyrics

Guitar lessons | Add/correct | Request | Top 50 tabs Artists:  A B C D E F G H I J K L M N O P Q R S T U V W X Y Z 0-9

Crash Guitar Tabs – Ocean Blue

CD, Sheet music, Poster

Do you like Crash? Share with your friends now
ChordsTabs
PROPS GO TO: Reggie Peratrovich

The Ocean Blue - "Crash"
Capo on 5th fret.
Intro:                                  |   Chords Used:
                                        |Cmaj7  C/G   G6   G*   G^   F*   F^   C^ 
-------------------------------------1e-|0-------0----0----0----0----0----x----3----
0-1------0-1------0-1------0-1-------2b-|0-------1----0----1----3----0----1----1----
0---0----0---0----2---2----0---0-----3g-|0-------0----0----0----0----2----2----0----
2-----2--0-----0--3-----3--0-----0---4d-|2-------2----0----0----0----3----3----2----
3--------2--------3--------2---------5a-|3-------3----2----2----2----3----3----3----
---------3--------1--------3---------6E-|x-------x----3----3----3----1----1----x----
Repeat intro three times

Verse 1:
|Cmaj7|C/G   |G/6      |G*           |F*  |F^  |G6   |G* G6
|Your |lovely|daydreams|from the     |back|of  |youth|  
|You  |meta  |morpho   |osed and then|off |they|flew |

Chorus:
|F^      |G6|G*         |C/G |C^|C/G|F*      |G6
|Remember|me|ee when you|fall|  |   |Remember|me when you.....

-------------------------------------
0-1------0-1------0-1------0-1-------
0---0----0---0----2---2----0---0-----
2-----2--0-----0--3-----3--0-----0---
3--------2--------3--------2---------
---------3--------1--------3---------
......Crash

-------------------------------------
0-1------0-1------0-1------0-1-------
0---0----0---0----2---2----0---0-----
2-----2--0-----0--3-----3--0-----0---
3--------2--------3--------2---------
---------3--------1--------3---------

Verse 2:
|Cmaj7|C/G    |G/6   |G*          |F*      |F^   |G6   |G*  |G6
|Your |soon to|morrow|  in        |front   |of   |you  |    |
|holds|lovely |daydre|ams from the|back    |round|view |    |

|F^      |G6|G*         |C/G |C^|C/G|F*      |G6|G*  |G6 
|Remember|me|ee when you|fall|  |   |Remember|me|when|you.....

|Cmaj7
|......when you......


Verse 3:
|Cmaj7|C/G    |G/6   |G*           |F*      |F^   |G6   |G*  |G6
|Your |soon to|morrow|  in         |front   |of   |you  |    |
|You  |meta   |morpho|osed and then|off     |you  |flew |    |


Chorus:
|F^      |G6|G*         |C/G |C^|C/G|F*      |G6
|Remember|me|ee when yoo|oooo|ou|   |Remember|me when you.....

-------------------------------------
0-1------0-1------0-1------0-1-------
0---0----0---0----2---2----0---0-----
2-----2--0-----0--3-----3--0-----0---
3--------2--------3--------2---------
---------3--------1--------3---------
......Crash

|Cmaj7  C/G  G^   G*   F*  F^  G6  G6| x2

3--3----3--5-3--3--3----3----------------------
0--1----3--0-0--0--1----0----------------------
0--0----0--0-0--2--2----0----------------------
2--2----0--0-0--3--3----0----------------------
3--3----2--2-2--3--3----2----------------------
x--x----3--3-3--1--1----3----------------------
v^v^_^v^v^v^_^v^v^v^_^v^v^v^_^v^ (strum Pattern)


|F^      |G6|G*         |C/G |C^|C/G|F*      |G6
|Remember|me|ee when yoo|oooo|ou|   |Remember|me when you

--------------------------------------
0-1------0-1------0-1------0-1--------
0---0----0---0----2---2----0---0------
2-----2--0-----0--3-----3--0-----0----
3--------2--------3--------2----------
---------3--------1--------3----------
......Crash                   when yoo

------------------------------------0
0-1------0-1------0-1------0-1------0
0---0----0---0----2---2----0---0----0
2-----2--0-----0--3-----3--0-----0--2
3--------2--------3--------2--------3
---------3--------1--------3---------(let ring)
ooou..Crash


This is my best representation.  Enjoy!
Reggie Peratrovich





Comments


Popular Ocean Blue tabs & chords
Crash Chords
Denmark Chords
Ground Gives Way Chords
I Cant See You Chords
Sad Night Where Is The Morning Chords
Between Something And Nothing Tabs
Fast Forward Reverse Ukulele
Give It A Try Ukulele
Latin Blues Ukulele
New York 6am Ukulele


Song lyrics



↑ Back to top | Tablatures and chords are parodies/interpretations of the original songs. You may use it for private study, scholarship, research or language learning purposes only
© 2014 AZChords.com Contact us | Privacy policy | DMCA | Add/correct tabs | Request tabs | Top 50 tabs