» » »

Oceana, The Tide Tabs (ver.1)

Artists:  A B C D E F G H I J K L M N O P Q R S T U V W X Y Z # 

The Tide Tabs (ver.1)

Oceana Tabs
 Rating:
4.4/5 (7 votes)
The Tide lessons Tabs too difficult? Try these video lessons and learn fast
1
                Tuning: Drop C#

I'm not sure how the intro goes so i'm not going to put it :]


(0:03-0:14)
And his face shown like the sun...           
[----------------][-------------][----------------]
[----------------][-------------][----------------]
[1414-1010-1212-9][-77-6--10107-][1414-1010-1212-9]   
[----------------][-------8-8-5-][----------------]
[1212-8-8--1010-7][-55-4--8-8-5-][1212-8-8--1010-7]
[----------------][-------8-8-5-][----------------]


(0:15-0:18)
[---------------------]
[---------------------]
[---------------------]
[0--0-0-0000-0--0-0-00]
[0--0-0-0000-0--0-0-00]
[0--0-0-0000-0--0-0-00]

(0:19-0:32)
Tide has come...
[--------------------------][---------------------------]
[--------------------------][------------------------5-8]
[--------------------------][----------------------5----]
[0--0-0-0000--0--0-0-0-00-0][0--0-0-0000--0--0-0-0------]  (x2)
[0--0-0-0000--0--0-0-0-00-0][0--0-0-0000--0--0-0-0------]
[0--0-0-0000--0--0-0-0-00-0][0--0-0-0000--0--0-0-0------]

(0:33-0:35)
[--------------------]
[---5-8----------8---]
[-5------(x3)----5---]
[--------------------]
[--------------------]
[--------------------]

(0:36-1:07)
Take us away..........
[------------------------------------------][--------------------]
[------------------------------------------][--------------------]
[10-10-10-10--9-9-9-9--12-12-12-12--7-7-7-7][-7--8-7----7--8-7---]
[------------------------------------------][--------5---------5-]  (x4)
[-8--8--8--8--7-7-7-7--10-10-10-10--5-5-5-5][--------------------]
[------------------------------------------][--------------------]


(1:08-1:21)
[--------------------]
[--------------------]
[-7--8-7----7--8-7---]
[--------5---------5-] (x4)
[--------------------]
[--------------------]

(1:22-1:23)

[-----]
[-----]
[-----]
[--0--]
[--0--]
[--0--]


I'm still figuring out the rest. I'll ubdate it in a couple days.
            
Submit corrections

comments powered by Disqus
↑ Back to top | Oceana Tabs for The Tide. Lyrics for acoustic guitar and electric guitar. 1 Tablatures and chords are parodies/interpretations of the original songs. You may use it for private study, scholarship, research or language learning purposes only