» » »

The Portrait Tabs (ver.1)

Artists:  A B C D E F G H I J K L M N O P Q R S T U V W X Y Z # 

The Portrait Tabs (ver.1)

Oceana
Rating:
5/5 (1 vote)

Hard to play? Try these video lessons and learn fast.
                (Intro)
# The Portrait by

# Tab by Hello Astronaut

The tab isn't quite complete yet and I'm stil working on this,
but just wanted to post incase people spot any mistakes that should be termited for the 
version of this.

On another note: this might be the trickiest Oceana song to play. Next to We Are the Messengers.

When this is done, I'm also gonna post a GuitarPro version of this.

######

SECTION 1: Intro (might sound off when played slowly, but it's still the right way to 
it)

D#||----------------------------------------------------------|
A#||--5h--6p--5---------------10s--8---------6s--8------------|
F#||-------------5s--7-----7----------7h--9---------9p--7-----|
C#||----------------------------------------------------------|
G#||----------------------------------------------------------|
C#||----------------------------------------------------------|


-----------------------------------------------------------|
--5h--6p--5---------------10s--8---------6s--8-------------|
-------------5s--7-----7----------7h--9---------9h--10-----|
-----------------------------------------------------------|
-----------------------------------------------------------|
-----------------------------------------------------------|


-----------------------------------------------------------|
--5h--6p--5---------------10s--8---------6s--8---------10--|
-------------5s--7-----7----------7h--9---------9p--7------|
-----------------------------------------------------------|
-----------------------------------------------------------|
-----------------------------------------------------------|


SECTION 2: "Oh the humanity..."


|------------------------------------------|
|------------------------------------------|
|*-------------9-9-9-9-9-----9-9-9-9-9-----|
|*-------------7-7-7-7-7-----7-7-7-7-7-----|
|---3----0-----8-8-8-8-8-----8-8-8-8-8-----|
|---3----0---------------------------------|

(Riff below was pretty hard to figure out,
cuz in the recording the drums and vocals are a louder in the mix than the guitar,
so notes might be off, not sure)

------------------------------------|-----------------------------------------|
------------------------------------|-----------------------------------------|
------------------------------------|-------------9-9-9-9-9-----9-9-9-9-9-----|
--------7s--5---------3s--5---------|-------------7-7-7-7-7-----7-7-7-7-7-----|
-----5---------5h--7---------7p--5--|--3----0-----8-8-8-8-8-----8-8-8-8-8-----|
--0---------------------------------|--3----0---------------------------------|


-------------------------------------||--------------------------|
-------------------------------------||--------------------------|
------------------------------------*||--9--9--9--9--9--9--9--9--|
--------7s--5---------3s--5---------*||--7--7--7--7--7--7--7--7--|
-----5---------5h--7---------7h------||--8--8--8--8--8--8--8--8--|
--0----------------------------------||--------------7--7--7--7--|


---------------------------8--------------------|
-----5h--6p--5--------------------8-------------|
----------------5s--7--------------------5------|
------------------------------------------------|
------------------------------------------------|
------------------------------------------------|


----------------------------------------------------------|
--5h--6p--5---------------10s--8---------6s--8------------|
-------------5s--7-----7----------7h--9---------9p--7-----|
----------------------------------------------------------|
----------------------------------------------------------|
----------------------------------------------------------|


SECTION 3: "Dear Father..."
This is where I got stuck. Anyone who can help, post it pl0x.
It's the section before the ambient stuff.

------------------------------------------|
-----6--6--6--6--6------------------------|
-----9--9--9--9--9------------------------|
------------------------------------------|
------------------------------------------|
--0---------------------------------------|
            
Hard to play? Try these video lessons and learn fast. | Correct




comments powered by Disqus
↑ Back to top | Tablatures and chords are parodies/interpretations of the original songs. You may use it for private study, scholarship, research or language learning purposes only