» » »

Boneworks Tabs (ver.1)

Artists:  A B C D E F G H I J K L M N O P Q R S T U V W X Y Z # 

Boneworks Tabs (ver.1)

Oceana
Rating:
0/5 (0 votes)

Hard to play? Try these video lessons and learn fast.
                
b=bend
/=slide

Tuning: i played it DROP B.
                              :00 to :30
e|-----------------------------------------------------------------------------|
B|-----------------------------------------------------------------------------|
G|-----------------------------------------------------------------------------|
D|-----------------------------------------------------------------------------|
A|----------5------------------6--5---0----------1-1-1-1-x-1-x-1-1-1-1-/-------|
E|---0---8------7---0---5---0------------3---0---1-1-1-1-x-1-x-1-1-1-1-/-------|

e|-----------------------------------------------------------------------------|
B|-----------------------------------------------------------------------------|
G|-----------------------------------------------------------------------------|
D|-----------------------------------------------------------------------------|
A|-7-7-7-7---------------------------------------------------------------------|
E|-7-7-7-7---------------------------------------------------------------------|
                                 :31
e|-----------------------------------------------------------------------------|
B|---------------------7---7--7--7--7--7-7-7-----------------------------------|
G|---------------------7---7--7--7--7--7-7-7-----------------------------------|
D|---------------------5---5--5--5--5--5-5-5-----------------------------------|
A|-----------------------------------------------------------------------------|
E|-----------------------------------------------------------------------------|
                                    :32 to :45
e|-----------------------------------------------------------------------------|
B|-----------------------------------------------------------------------------|
G|-----7---7--7--7--7--7-7-7---------------------------------------------------|
D|-----7---7--7--7--7--7-7-7---------------------------------------------------|
A|-----5---5--5--5--5--5-5-5----3---3---3--3---7-7---1-1-----------------------|
--------------------------------3---3---3--3---7-7---1-1-----------------------|
                                :47 to 1:15   (breakdown?)
e|-----------------------------------------------------------------------------|
B|-----------------------------------------------------------------------------|
G|-----------------------------------------------------------------------------|
D|-----------------------------------------------------------------------------|
A|---0----12-12-12-12-12-12-12--0-0-0-8-8-8-8-5-5-5-5-5-5--1-1-1-1-1-1---------|
E|---0----12-12-12-12-12-12-12--0-0-0-8-8-8-8-5-5-5-5-5-5--1-1-1-1-1-1---------|
         (your voice is a carol)     1:19 to 1:43
e|----------------------------------17--12-13 10--17-12-13-10-15---------------|
B|-----------------------------------------------------------------------------|
G|-----------------------------------------------------------------------------|
D|----0~-----------------------------------------------------------------------|
A|----0~-----------------------------------------------------------------------|
E|----0~-----------------------------------------------------------------------|
                                    1:44 to 2:14
e|-----------------------------------------------------------------------------|
B|-----------------------------------------------------------------------------|
G|-----------------------------------------------------------------------------|
D|-----------------------------------------------------------------------------|
A|----5-5-----1---5-5------1--0--3---------------------------------------------|
E|--------0-0----------0-0-----------------------------------------------------|

e|-----------------------|
B|-----------------------|       till end.
G|-----------------------|
D|-----------------------|
A|------5b------1--3--3--|
E|----------0-0----------|
            
Hard to play? Try these video lessons and learn fast. | Correct




comments powered by Disqus
↑ Back to top | Tablatures and chords are parodies/interpretations of the original songs. You may use it for private study, scholarship, research or language learning purposes only