>
 >
Splattered

Splattered Guitar Tabs

Obituary - Splattered chords, tabs, tablatures, lyrics

Guitar lessons | Add/correct | Request | Top 50 tabs Artists:  A B C D E F G H I J K L M N O P Q R S T U V W X Y Z 0-9

Splattered Guitar Tabs – Obituary

CD, Sheet music, Poster

Do you like Splattered? Share with your friends now
Tabs
OBITUARY - SPLATTERED
                            From the Album - WORLD DEMISE
                         Copyright - ROADRUNNER RECORDS 1994
                              Version 1.0 - Oct 29, 2002



For Questions, Comments, Newest Version, or Corrections contact


.  - palm mute           /  - slide up to
\  - slide down to       ~  - vibrato
h  - hammer on           b  - Bend
p  - pull off            Suffixes for bend
t  - tap                 f  - full bend    h - half bend
ph - pinched harmonic    q  - quarter bend t - tap bend
nh - natural harmonic    ^  - Hold bend    r release bend
*  - see comment         ~  - vibrato bend
x  - Stuccatto           () - ghost note, sustained note
,  - slight palm mute    <> - Trill
"  - tremolo note

Tuning: "D"G"C"F"A"D"


Riff 1
|-------------------------------------------|
|-------------------------------------------|
|-------------------------------------------|
|--------------------4-------------5--------|
|--0--0--0--0--0--0--2----0--0--0--3--------|
|--0--0--0--0--0--0--2----0--0--0--3--------|
   .  .  .  .  .  .       .  .  .

Riff 2
|---------------------------------------|
|---------------------------------------|
|---------------------------------------|
|------------------------------5--------|
|-------------------4----------3--------|
|--0-0-0-0-0-0-2--0-2--0-0-0-0-3--------|
   . . . . . . .  .    . . . .

Riff 3
|-----------------------------------------------------|
|-----------------------------------------------------|
|-----------------------------------------------------|
|-----------------------------------------5--5--------|
|-----------------------------------------3--3--------|
|--0-0-0-0-0-0-2--0-0-0-0-0-0-0-0-0-0-0-0-3--3--------|
   . . . . . . .  . . . . . . . . . . . .

Riff 4
|----------------------------------------------------------------|
|----------------------------------------------------------------|
|----------------------------------------------------------------|
|--6------------------------------3------------------------------|
|--6------------------------------3------------------------------|
|--4------------------------------1------------------------------|


Riff 5-A                 x3                  x1
|--------------------------|-------------------|
|--------------------------|-------------------|
|--------------------------|-------------------|
|--------------------------|-------------------|
|--6-----------------------|--5-------4--------|
|--4--4-4-4-4-4-4-4-4-4-4--|--3--3333-2--2222--|
      . . . . . . . . . .        ....    ....

Riff 5-B
|--------------------------------|
|--------------------------------|
|--------------------------------|
|--------------------------------|
|--6-------6-------5-------4--4--|
|--4--4444-4--4444-3--3333-2--2--|
      ....    ....    ....

Riff 6
|-----------------------------------------------------------|
|-----------------------------------------------------------|
|-----------------------------------------------------------|
|-----------------------------------------------------------|
|------5----3\4----5x-5x-5x-3-3------5----3\4----5x-5x-4----|
|--0-0-3--0-1\2--0-3x-3x-3x-1-1--0-0-3--0-1\2--0-3x-3x-2----|
   . .    .      .               . .    .      .

Riff 7
|--------------------------------------|
|--------------------------------------|
|--------------------------------------|
|------6\7----4\5----3\4---------------|
|------4\5----2\3----1\2---------------|
|--0-0------0------0------0-0-0-0-0-0--|
   . .      .      .      . . . . . .

Riff 8
|----------------------------------------------------|
|----------------------------------------------------|
|----------------------------------------------------|
|--------5------------------------5------------------|
|--------3---4---3-5-2------------3---4---3-5-7------|
|--0-0-0-3---2---1-3-0------0-0-0-3---2---1-3-5------|
   . . .                    . . .

End
|----------------------------------|
|----------------------------------|
|----------------------------------|
|------------------------------5x--|
|--------------4----4----------3x--|
|--0-0-0-0-0-0-2--0-2--0-0-0-0-3x--|
   . . . . . . .  .    . . . .

Check out my other tabs by: Deicide, Obituary, Hypocrisy,
Grave, Catastrophic, Six Feet Under, Incantation, Death and
Cannibal Corpse.





Comments


Popular Obituary tabs & chords
Body Bag Bass Tabs
Boiling Point Tabs
Buried Alive Tabs
By The Light Tabs
Gates To Hell Tabs
Redefine Tabs
Rotting Ways 1 Tabs
Set In Stone Tabs
Threatening Skies 1 Tabs
Threating Skies Tabs


Song lyrics



↑ Back to top | Tablatures and chords are parodies/interpretations of the original songs. You may use it for private study, scholarship, research or language learning purposes only
© 2014 AZChords.com Contact us | Privacy policy | DMCA | Add/correct tabs | Request tabs | Top 50 tabs