» » »

Obituary, Slowly We Rot Bass tabs (ver.1)

Artists:  A B C D E F G H I J K L M N O P Q R S T U V W X Y Z # 

Slowly We Rot Bass tabs (ver.1)

Obituary Tabs
 Rating:
4.3/5 (6 votes)
Slowly We Rot lessons Tabs too difficult? Try these video lessons and learn fast
                -----------------------------------
                     -----------------------------------


Tuning:

Intro Pt.1 x3
G|------------------------------|
D|------------------------------|
A|---8-7---6-5~---8-7---6-5-----|
E|-5-----5------5-----5-----5-3-|

Intro Pt.2
G|--------------------------------|
D|--------------------------------|
A|---8-7---6-5----8-7---6-5-------|
E|-5-----5------5-----5-----0-0-0-|

1st Verse x7 (inc solo)
G|------------------|-----------------|
D|------------------|-----------------|
A|------------------|-----------------|
E|-0-0--(4)-(3)-(1)-|-0-0-(6)-(5)-(1)-|

Chorus Pt.1 x6
G|------------------|----------------|
D|------------------|----------------|
A|------------------|----------------|
E|-0--0-0-0-1-0-0-0-|-3-0-0-0-3-2-1--|

Chorus Pt.2 x4
G|-------------------------------|-------------------|
D|-------------------------------|-------------------|
A|-------------------------------|-------------------|
E|0-2-2-2-2-2-2-2-0-2-2-2-2-2-2-2|-3-2-2-2-2-2-2-2-3-|

Chorus Pt.1 x4
G|------------------|----------------|
D|------------------|----------------|
A|------------------|----------------|
E|-0--0-0-0-1-0-0-0-|-3-0-0-0-3-2-1--|

Haven't figured solo backing out yet

Outro Pt.1 x4
G|-----------------------------|-----------------------------|
D|-----------------------------|-----------------------------|
A|-----------------------------|-----------------------------|
E|-0-0-0-0-0-0-0-0--1--0-0-0-0-|-0-0-0-0-0-0-0-0--4--3--6----|

Chorus Pt.1 x4
G|------------------|----------------|
D|------------------|----------------|
A|------------------|----------------|
E|-0--0-0-0-1-0-0-0-|-3-0-0-0-3-2-1--|

Outro Pt.2
G|--------------------------------|---------------------------\-|
D|--------------------------------|-----------------------------| \
A|--------------------------------|-----------------------------|  \
E|0-0-0-0-0-0-0-0-0-0-0-0-0-0-0-0-|0-0-0-0-0-0-0-0-0-0-0-0---1--|   \
                                                                   x4

G|--------------------------------|----------------------------|    /
D|--------------------------------|----------------------------|   /
A|--------------------------------|----------------------------|  /
E|0-0-0-0-0-0-0-0-0-0-0-0-0-0-0-0-|0-0-0-0-0-0-0-0---4------3--| /

Chorus Pt.1 x4
G|------------------|----------------|
D|------------------|----------------|
A|------------------|----------------|
E|-0--0-0-0-1-0-0-0-|-3-0-0-0-3-2-1--|

END!

There are parts of this tab i can garantee are rong, but its my version so there u go.

PEACE OUT

| /  slide up
| \  slide down
| h  hammer-on
| p  pull-off
| ~  vibrato
| +  harmonic
| x  Mute note
===============================================================================
            
Submit corrections

comments powered by Disqus
↑ Back to top | Obituary Bass for Slowly We Rot. Lyrics for acoustic guitar and electric guitar. Tablatures and chords are parodies/interpretations of the original songs. You may use it for private study, scholarship, research or language learning purposes only