» » »

Slow Death Tabs (ver.1)

Artists:  A B C D E F G H I J K L M N O P Q R S T U V W X Y Z # 

Slow Death Tabs (ver.1)

Obituary
Rating:
4/5 (1 vote)

Hard to play? Try these video lessons and learn fast.
                Band:  obituary



Copyright (c)  roadrunner records - 2005

Version 1.1




.  - palm mute           /  - slide up to
\  - slide down to       ~  - vibrato
h  - hammer on           b  - Bend
p  - pull off            Suffixes for bend
t  - tap                 f  - full bend    h - half bend
ph - pinched harmonic    q  - quarter bend t - tap bend
*  - see comment         ^  - Hold bend    r release bend
x  - Stuccatto           ~  - vibrato bend
,  - slight palm mute    () - ghost note, sustained note
"  - tremolo note        <> - Trill


Tuning D G C F A D


Riff 1 - Guitar 1

|-------------------------------------------------------------------|
|-------------------------------------------------------------------|
|-------------------------------------------------------------------|
|-----------------------------------3-------------------------------|
|---------5----------6----------5-3-1-------------------------------|
|-0-0-0-0-3--0-0-0-0-4--0-0-0-0-3-1-1-------------------------------|
  . . . .    . . . .    . . . .


Riff 1 - Guitar 2

|-------------------------------------------------------------------|
|-------------------------------------------------------------------|
|-------------------------------------------------------------------|
|-----------------------------------3-------------------------------|
|---------5\--------------------5-3-1-------------------------------|
|-0-0-0-0-3\--------------------3-1-1-------------------------------|
  . . . .


Riff 2

|-------------------------------------------------------------------|
|-------------------------------------------------------------------|
|-------------------------------------------------------------------|
|-----------------------------------------3-------------------------|
|--------------------3--------------------1--------------------3----|
|-0-0--0--0-0-0--0-0-1-0-0--0--0-0-0--0-0---0-0--0--0-0-0--0-0-1----|
  . .  .  . . .  . .   . .  .  . . .  . .   . .  .  . . .  . .


|-------------------------------------------------------------------|
|-------------------------------------------------------------------|
|-------------------------------------------------------------------|
|--------------------3----------------------------------------------|
|--------------------1-3--------------------------------------------|
|-0-0--0--0-0-0--0-0-1-1--------------------------------------------|
  . .  .  . . .  . .


Riff 3

|-------------------------------------------------------------------|
|-------------------------------------------------------------------|
|-------------------------------------------------------------------|
|-------6-----------------------------------------------------------|
|-2-4-5-4-2-(2)----3-3-3--------------------------------------------|
|-0-2-3-4-0-(0)----1-1-1--------------------------------------------|
                   . . .


Riff 4

|-------------------------------------------------------------------|
|-------------------------------------------------------------------|
|-------------------------------------------------------------------|
|-------6\----------------------------------------------------------|
|-2-4-5-4\----------------------------------------------------------|
|-0-2-3-4\----------------------------------------------------------|


Riff 5

|-------------------------------------------------------------------|
|-------------------------------------------------------------------|
|-------------------------------------------------------------------|
|-------------------------------------5-4---------------------------|
|-2-2--2-2-2-2--2-3--3-3-3-3--3-2--2--3-2--4-5----------------------|
|-0-0--0-0-0-0--0-1--1-1-1-1--1-0--0--3-2--2-3----------------------|
       . . . .       . . . .


Riff 6

|-------------------------------------------------------------------|
|-------------------------------------------------------------------|
|-------------------------------------------------------------------|
|-----------------------------------3-------------------------------|
|---------5----------6----------5-3-1-2-----------------------------|
|-0-0-0-0-3--0-0-0-0-4--0-0-0-0-3-1-1-0-----------------------------|
  . . . .    . . . .    . . . .


END
            
Hard to play? Try these video lessons and learn fast. | Correct




comments powered by Disqus
↑ Back to top | Tablatures and chords are parodies/interpretations of the original songs. You may use it for private study, scholarship, research or language learning purposes only